Oops, an error
Loading. Please wait.

Money Bass Tab

version 3
version 3

Whole song

Interactive

2,505 views 1 this week
no commentswrite comment
1 2 3 4 5
2 more votes to show rating
add to favorites
launch autoscroll
font size
0
reset
guitar tuner
Autoscroll
slow
fast
+/-
esc
set tempo
stop
Help us to improve Ultimate-Guitar.com Take our survey!
×
Author
Difficulty
novice
The Drums : Money
Tabbed by : Hariz05 (twitter.com/cubatrytest)
Tuning    : Standard (EADGBe)

This song has two parts for the bass, 
all repeated alternatively.

The other tab is correct,
but here's a better arrangement and a more accurate tab,
rate and comment :)

[INTRO] x4

G|---------------------------|
D|---------9-12-12-9-1212-99-|
A|10-10-10-------------------|
E|---------------------------|

G|----------9-9-9-9-77-------|
D|-------99----9-------------|
A|-7-7-7---------------------|
E|---------------------------|

[VERSE] x4

"Before I die..."

G|---------------------------|
D|---------9-12-12-9-1212-99-|
A|10-10-10-------------------|
E|---------------------------|

G|----------9-9-9-9-77-------|
D|-------99----9-------------|
A|-7-7-7---------------------|
E|---------------------------|

[CHORUS] x2

"I want to buy you something..."

G|---------------|
D|---------------|
A|-10-x32--------|
E|--------12-x32-|

[POST-CHORUS] x4

G|---------------------------|
D|---------9-12-12-9-1212-99-|
A|10-10-10-------------------|
E|---------------------------|

G|----------9-9-9-9-77-------|
D|-------99----9-------------|
A|-7-7-7---------------------|
E|---------------------------|

Repeat: 

[VERSE] x4 

[CHORUS] x2 
[POST CHORUS] x6

[CHORUS] x4
[POST CHORUS] x8
Suggest correction
Give kudos to tab author, rate the tab!
1 2 3 4 5
comments
print report bad tab
guest
You may want to rate the tab now too:
select rating
Wanna post a correction for this tab? Suggest correction