Oops, an error
Loading. Please wait.

Rocky Road To Dublin tab

version 2
version 2

Whole song

Interactive

49,055 views 66 this week
no commentswrite comment
1 2 3 4 5
x 6
add to favorites
×
Save as Personal and add changes to this tab that will be seen only by you. Learn more ›
×
You can save this tab as Personal to edit and correct it or add notes. All changes will be seen only by you. Learn more »
launch autoscroll
font size
0
reset
how to read this tab
guitar tuner
edit
Autoscroll
slow
fast
+/-
esc
set tempo
stop
Author
Difficulty
Unregistered
Every version I found of this song was half a step too high so I transposed it and 
decided to save everyone else the pain of doing to same by posting it here.

[Intro]

e|-------------------------------------------------------------------|
B|-------------------------------------------------------------------|
G|--1-4-1-------------------------------1-4-1------------------------|
D|--------4---1---1---------------2---4-------4---1-----2-1----------|
A|--------------4---4-----4-4---4-------------------4---------2-2----|
E|--------------------4----------------------------------------------|

e|-------------------------------------------------------------------|
B|-------------------------------------------------------------------|
G|---------1-4-1-----------------------------------------------------|
D|---1---4-------4---1-----------------------------------------------|
A|-4-------------------4---------------------------------------------|
E|-------------------------------------------------------------------|


[Main]

e|--------------------------------------------------------------------------|
B|--------------------------------------------------------------------------|
G|(1-1)---1-1---1-----------------------------1-4-1-------------------------|
D|----------------4---2-----------------2---4-------4---1-----2-1-----------|
A|----------------------4-------4-4---4-------------------4---------2-2-----|
E|--------------------------4-----------------------------------------------|

e|-------------------------------------------------------------------|
B|-------------------------------------------------------------------|
G|-------1-4-1-------------------------------1-4-1-------------------|
D|---1---------------2-----------------2---------------2-----2-1-----|
A|-4-------------------4-------4-4---4-------------------4-----------|
E|-------------------------4-----------------------------------------|

e|-------------------------------------------------------------------|
B|-----------------------2-0---0-----------2-0---0-----------2-0---0-|
G|-----------------1---1-----4-----1-1---1-----4-----1-1---1-----4---|
D|-----------1---4---------------------------------------------------|
A|---2-2---4---------------------------------------------------------|
E|-------------------------------------------------------------------|

e|-------------------------------------------------------------------|
B|-----------------------------2-0---0-----------2-0---0-------------|
G|---1-------------------1---1-----4-----1-1---1-----4---------------|
D|-----4---1-------1---4---------------------------------------------|
A|-----------2---4---------------------------------------------------|
E|-------------------------------------------------------------------|

e|-------------------------------------------------------------------|
B|----------2-0---0--------------------------------------------------|
G|--1-1---1-----4-----1-------------------------1---1----------------|
D|----------------------4---4-4---1-------1---4-------4---2----------|
A|----------------------------------2---4-------------------4--------|
E|-------------------------------------------------------------------|

e|--------------------------------------------------------------------|
B|--------------------------------------------------------------------|
G|---------------------1-4-1-----------------------------1---1--------|
D|---------------2---4-------4---2-----2-1----------1--4-------4--2---|
A|-------4-4---4-------------------4---------2-2--4-----------------4-|
E|---4----------------------------------------------------------------|

            
            
Suggest correction
Creating personal tab
Creating personal tab
You can edit any tab online and save it as your Personal.

You can edit, replace or remove any tab part or add personal notes – all changes will be seen only by you.

Personal tabs can be accessed anytime from any device, even offline.
Learn more »
comments
print report bad tab
guest
Wanna post a correction for this tab? Suggest correction