Oops, an error
Loading. Please wait.

Mr Someone Else tab

3,425 views 6 this week
1 commentread comment
1 2 3 4 5
x 4
add to favorites
×
Save as Personal and add changes to this tab that will be seen only by you. Learn more ›
×
You can save this tab as Personal to edit and correct it or add notes. All changes will be seen only by you. Learn more »
launch autoscroll
font size
0
reset
how to read this tab
guitar tuner
edit
Autoscroll
slow
fast
+/-
esc
set tempo
stop
Author
Difficulty
tabbed by solomon

Mr. Someone Else
blood guts bruises cuts

by teh dudes! yeh boi!

The song is in the key of G#, up until the bridge leading into the solo. yo.
oh and there is 2 guitars in this song, though ive condensed them into one for simplicity.
and also so its easier to play by urself. for the most part im using the lead, though rhythm
shows up often as well.


INTRO
e|-----------------------------------------------------------|
b|-----------------------------------------------------------|
g|---------------11-11/8/6/8-8--------------11-11/8/6/8-6----|
d|-x-xx-99-99-9--------------------66-66-6-------------------|
a|-x-xx-99-99-9---9--9/6/4/6-6-----66-66-6---9--9/6/4/6-4----|
E|-x-xx-77-77-7-----------------/4-44-44-4-------------------|
        .. .. .                    .. .. .
e|--------------------------------------------------------|
b|--------------------------------------------------------|
g|-88-98-9--11-11/8/6/8-8---44/6-6-66/8-8-88--8b-6--8-----|
d|-88-98-9-----------------------------------------9-9-6--|
a|-66-76-7---9--9/6/4/6-6---22/4-4-44/6-6-66--------------|
E|--------------------------------------------------------|
   .. .. .
VERSE 1
figure out ur own timing, its easy.

e|-----------------------------------------------------------------|
b|-----------------------------------------------------------------|
g|-----------------------------------44/6-6-66/8-8-88--8b-6--8-----|
d|99-99-9-------66-66-6---22-22-2---------------------------9-9-6--|
a|99-99-9-------66-66-6---22-22-2----22/4-4-44/6-6-66--------------|
E|77-77-7----/4-44-44-4---00-00-0----------------------------------|
  .. .. .       .. .. .   .. .. .

e|----------------------------------------------------------|
b|----------------------------------------------------------|
g|---------11-11p8-8/6-6h8-88-----------11-11p8-8/6-6h8-88--|
d|99-99-9-----------------------66-66-6---------------------|
a|99-99-9-----------------------66-66-6---------------------|
E|77-77-7-----------------------44-44-4---------------------|
  .. .. .  .       .         .  .. .. .   .      .      .    

e|-------------------------------------------------------|
b|-------------------------------------------------------|
g|-88-98-8--11-11p8-8/6-6h8-88-----------6666-8888-xx-x--|
d|-88-98-9-----------------------------------------------|
a|-66-76-7-------------------------------4444-6666-xx-x--|
E|-------------------------------------------------------|
   .. .. .   .       .      .
chorus

e|---------------------------|
b|---------------------------|
g|-11-66/8-8--66/8-6-4-------|
d|---------------------------|
a|-9--44/6-6--44/6-4-2-------|
E|---------------------------|  x3

e|-----------------------|
b|-----------------------|
g|-6666-8888--8b-6/4-6p4-|
d|-----------------------|
a|-4444-6666-------------|
E|-----------------------|

e|---------------------------|
b|---------------------------|
g|-11-66/8-8--66/8-6-4-------|
d|---------------------------|
a|-9--44/6-6--44/6-4-2-------|
E|---------------------------|  x3

e|-------------------------------------------|
b|-------------------------------------------|
g|-4444-6666-8888---8b-6---------------------|
d|-----------------------9-9/11-9/6-----9----|
a|-2222-4444-6666-------------------9h11-11~-|
E|-------------------------------------------|

Verse 2
e|----------------------------------------------------------|
b|----------------------------------------------------------|
g|---------11-11p8-8/6-6h8-88-----------11-11p8-8/6-6h8-88--|
d|99-99-9-----------------------66-66-6---------------------|
a|99-99-9-----------------------66-66-6---------------------|
E|77-77-7-----------------------44-44-4---------------------|
  .. .. .  .       .         .  .. .. .   .      .        .  
e|-----------------------------|
b|-----------------------------|
g|---------11-11p8-8/6-6h8-88--|
d|22-22-2----------------------|
a|22-22-2----------------------|
E|00-00-0----------------------|
  .. .. .  .       .       .
Okay, this part is call and response shiz between bass and geetar. and the guitar is more in
the background here, so its not as easy to hear. so what i write isnt going to be dead on. at
all. lol.

e|-----------------------------------------------------------------|
b|-----------------------------------------------------------------|
g|--8b-6---8-4-----86-86-8/11-11----88-66-4h6p4-----6666-8888-xx-x-|
d|-6-----9-------6----------------9------------6~------------------|
a|--------------------------------------------------4444-6666-xx-x-|
E|-----------------------------------------------------------------|

Chorus

e|---------------------------|
b|---------------------------|
g|-11-66/8-8--66/8-6-4-------|
d|---------------------------|
a|-9--44/6-6--44/6-4-2-------|
E|---------------------------|  x3

e|-----------------------|
b|-----------------------|
g|-6666-8888--8b-6/4-6p4-|
d|-----------------------|
a|-4444-6666-------------|
E|-----------------------|

e|---------------------------|
b|---------------------------|
g|-11-66/8-8--66/8-6-4-------|
d|---------------------------|
a|-9--44/6-6--44/6-4-2-------|
E|---------------------------|  x3

e|-----------------------------|
b|----/19~~~~------19b-19~~~---|
g|-----------------------------|
d|-----------------------------|
a|-----------------------------|
E|-----------------------------|

Bride: im too freaking lazy to get this. its just open chords with some distortion, my guess
is that they play the open version of the barre chords they've been playing (B, G#, E)

KEY CHANGE FOO! it goes from G# to A, this is as soon as the power chords come in during the
bridge, you'll know what im talking about when u listen to it.

e|----------------------------------------------------------------|
b|----------------------------------------------------------------|
g|----------------------------------------------------------------|
d|--7-9~---7---7-9~-----7-9~---7-9-9--7-9-9--7-9------------------|
a|--7-9~---7---7-9~-----7-9~---7-9-9--7-9-9--7-9------------------|
E|--5-7~---5---5-7~-----5-7~---5-7-7--5-7-7--5-7-5-7-5-7-5-7------|
                                   .      .      . . . . . .

SOLO TIME!
okay, so im going to be completely honest here, im too friggin lazy to 
tab this out. I mean hell, its freaking A minor pentatonic, just improv along with it.
its not hard at all. Honestly, if u have a decent set of chops and know the patterns
for the pentatonic scale, ur good to go here. really anybody who has the ability to
play the solo if it was tabbed for them has the ability to improv if they'd just go and
check out one of the many theory atricles on this site that discuss the pentatonic scale.
so, kids, your on ur own.

and thats it! this is my first tab so if its good give meh a high five and if it sucks
make me feel the burn.
adios


key

h hammer on
p pull of
/ slide
v vibrato
b bend
. palm mute
x string mute
~let ring

            
            
Suggest correction
Creating personal tab
Creating personal tab
You can edit any tab online and save it as your Personal.

You can edit, replace or remove any tab part or add personal notes – all changes will be seen only by you.

Personal tabs can be accessed anytime from any device, even offline.
Learn more »
comments
print report bad tab
1 comment total.
0 reply
chadcoleisatwork 10 Jul 08, 2016 01:08 PM

Half done, not accurate. Please re-tab and you'll get a better rating. Thanks for trying, hopefully you'll nail it next time.

guest
You may want to rate the tab now too:
select rating
Wanna post a correction for this tab? Suggest correction