Oops, an error
Loading. Please wait.

This Is Your Life bass

version 2
version 2

Whole song

Interactive

557 views 1 this week
no commentswrite comment
1 2 3 4 5
2 more votes to show rating
add to favorites
×
Save as Personal and add changes to this tab that will be seen only by you. Learn more ›
×
You can save this tab as Personal to edit and correct it or add notes. All changes will be seen only by you. Learn more »
launch autoscroll
font size
0
reset
guitar tuner
edit
Autoscroll
slow
fast
+/-
esc
set tempo
stop
Author
And you open the door and you step inside. We're inside our hearts...


You are not a beautiful and unique snowflake.
G|----------------|
D|----------------|
A|-----------3--5-|
E|35555555555-55-3

You are the same decaying organic matter as anything else.
G|-----------------|
D|------------5554-|
A|-----------------|
E|355555553553-----|


You have to give up…
G|-----------------|
D|----7-----5-5555-|
A|-----------------|
E|5-------X--------|

…you have to give up…
G|-----------------|
D|----------5-5-55-|
A|-----------------|
E|5-------X--------|

…you have to realize that someday you will die…
G|-----------------|
D|----7-----5-5555-|
A|-----------------|
E|5-------X--------|

…until you know that, you are useless.
G|-----------------|
D|-----------------|
A|-----------------|
E|5-------X-3-3-33-|


I want you to hit me as hard as you can.

(All 16th notes)

            
            
Suggest correction
Creating personal tab
Creating personal tab
You can edit any tab online and save it as your Personal.

You can edit, replace or remove any tab part or add personal notes – all changes will be seen only by you.

Personal tabs can be accessed anytime from any device, even offline.
Learn more »
Give kudos to tab author, rate the tab!
1 2 3 4 5
comments
print report bad tab
guest
You may want to rate the tab now too:
select rating
Wanna post a correction for this tab? Suggest correction