Oops, an error
Loading. Please wait.

New Ideas Tab

1,133 views 1 this week
1 commentread comment
1 2 3 4 5
1 last vote to show rating
add to favorites
launch autoscroll
font size
0
reset
how to read this tab
guitar tuner
Autoscroll
slow
fast
+/-
esc
set tempo
stop
Help us to improve Ultimate-Guitar.com Take our survey!
×
Author
===============================
== The Dykeenies - New Ideas ==
===============================

A great upcoming band, love this new song. Im pretty sure this is
right, but its only a basic tab, I couldn't be bothered doing the rest

Tuning - Standard EADGBe

Strumming pattern - DUD U UDU
Listen to the song and you'll get the idea.

Intro: (A, C#m, E)

    D UD U  U D U  D UD U  U D U  D UD U  U D U  D UD U  U D U
e|--------------------------------------------------------------|
B|--------------------------------------------------------------|
G|--------------------------------6-6x-6--6-6-6--6-6x-6--6-6-6--|
D|--7-7x-7--7-7-7--7-7x-7--7-7-7--6-6x-6--6-6-6--6-6x-6--6-6-6--|
A|--7-7x-7--7-7-7--7-7x-7--7-7-7--4-4x-4--4-4-4--4-4x-4--4-4-4--|
E|--5-5x-5--5-5-5--5-5x-5--5-5-5--------------------------------|

    D UD U  U D U  D UD U  U D U
e|--------------------------------------|
B|--------------------------------------|
G|--9-9x-9--9-9-9--9-9x-9--9-9-9--------|
D|--9-9x-9--9-9-9--9-9x-9--9-9-9--------|
A|--7-7x-7--7-7-7--7-7x-7--7-7-7--------|
E|--------------------------------------|

Verse:
(sounds better if you do some random picking on the chords)
e|--5~------------4~---------------7---------------------------------|
B|--5~------------5~---------------9---------------------------------|
G|--6~------------6~---------------9---------------------------------|
D|--7~------------6~---------------9---------------------------------|
A|--7~------------4~---------------7---------------------------------|
E|--5~------------x----------------x---------------------------------|
    'Silence is Golden, rotten to cores, closing all doors forgive me'


Prechorus: (Intro Riff)
A               C#m              E
  Don't forgive me_________________
                A                C#m
  Don't forgive me_________________
            E
  Never forgive

Chorus: ('A' chord all the way through)
  'I've got a wealth of new ideas
   I've got a wealth of new ideas
   I've got a wealth of new ideas
   I've got a wealth of new ideas'

Verse 2:
'Eyes are frozen
Steely and broken
Blind but open
Forgive me'

Bridge:
A                      C#m                     --\
  I've got so many new ideas                      \
                       E                           -- Muted
  I've got so many new ideas                      /
(Show me, show me, show me all your new ideas) --/

A                      C#m
  I've got so many new ideas
                       E
  I've got so many new ideas
(Show me, show me, show me all your new ideas

A                      C#m
  I've got so many new ideas
                       E
  I've got so many new ideas
(Show me, show me, show me all your new ideas


Outro: (Same Pattern)
You're making us look like fools
You're making us look like fools
You're making us look like fools
Stop making us

===
End
===
Suggest correction
Give kudos to tab author, rate the tab!
1 2 3 4 5
comments
print report bad tab
1 comment total.
0 reply
jack00743 132 May 25, 2007 01:31 PM

90% good.

well done :) x

guest
You may want to rate the tab now too:
select rating
Wanna post a correction for this tab? Suggest correction