Oops, an error
Loading. Please wait.

Pick You Up Bass Tab

728 views 1 this week
no commentswrite comment
1 2 3 4 5
please rate
add to favorites
launch autoscroll
font size
0
reset
guitar tuner
Autoscroll
slow
fast
+/-
esc
set tempo
stop
Help us to improve Ultimate-Guitar.com Take our survey!
×
Difficulty
novice
Fairly simple tab by a band that should get more recognition. This is my first tab, so 
probably not perfect. The rhythm is pretty easy to figure out.

Note:
1517 is 15-17 played fast, not 1-5-1-7.
15~ means hold the note, 15~~ hold the note longer.
17\ means slide down in notes, so up the fretboard towards the head.


Intro 0.27
G||----------------------------------------------------------------||
D||----------------------------------------------------------------||
A||----------------------------------------------------------------||
E||-151715171517~16~15~~15~161715171517~16~15~~15~16~17~\----------||

Chorus 0.42 (keep a steady rhythm)
G||---------------------------------||
D||---------------------------------||
A||---------------------------------||
E||-0-0-0-0-3-3-3-3-4-4-4-4-5-5-5-5-|| x2

Verse 0.56
G||------------------||
D||------------------||
A||------------------||
E||-0~~~3~~~4~~~5~~~-|| x4

Chorus 1.24 (keep a steady rhythm)
G||---------------------------------||
D||---------------------------------||
A||---------------------------------||
E||-0-0-0-0-3-3-3-3-4-4-4-4-5-5-5-5-|| x2

Bridge 1.38
G||---------------------------------||
D||---------------------------------||
A||---------------------------------||
G||-0000000333333344444445555555----|| x2

Chorus 1.52 (keep a steady rhythm)
G||---------------------------------||
D||---------------------------------||
A||---------------------------------||
E||-0-0-0-0-3-3-3-3-4-4-4-4-5-5-5-5-|| x2

Verse 2.06
G||------------------||
D||------------------||
A||------------------||
E||-0~~~3~~~4~~~5~~~-|| x2

Chorus 2.20 (keep a steady rhythm)
G||---------------------------------||
D||---------------------------------||
A||---------------------------------||
E||-0-0-0-0-3-3-3-3-4-4-4-4-5-5-5-5-|| x2

Bridge 2.34
G||---------------------------------||
D||---------------------------------||
A||---------------------------------||
G||-0000000333333344444445555555----|| x2

Outro 2.48
G||--------------------------------------------------------------||
D||--------------------------------------------------------------||
A||--------------------------------------------------------------||
E||-0-0-0-0-3-3-3-3-4-4-4-4-5-5-5-5-0-0-0-0-3-3-3-3-4-4-4-4-5~~~-||
Suggest correction
What's this?
You can suggest a correction to this tab. Community and Mods will review your correction and vote to approve or reject it.
comments
We did not receive enough feedback on this tab! Please rate:
print report bad tab
1 2 3 4 5
guest
You may want to rate the tab now too:
select rating
Please do not post tabs as comments. Select "correction" instead!