Oops, an error
Loading. Please wait.

Stitches Acoustic Tab

5,035 views 24 this week
2 commentsread comments
1 2 3 4 5
accurate
x 4
add to favorites
launch autoscroll
font size
0
reset
how to read this tab
guitar tuner
Tab Pro tools
  • play this tab
  • loop segment
  • change instrument
  • show fretboard
  • metronome
Autoscroll
slow
fast
+/-
esc
set tempo
stop
Contributor
==================================
The Dykeenies - Stitches Acoustic
==================================

performed on Xfm.

NOTE: If you play along with it you may notice it sounds abit strange
this is because they have there guitar tuned 1/4 step down for some
reason, I think it may be by accident, not sure. Great song anyway.
Enjoy.

P.S Ive not shown the strumming pattern, its easy enough, listen to it
and figure it out.

=========
CAPO 2nd
=========

Main Riff: (Played all the way through, until the bridge)

e|-------------------------------------------------------------------|
B|------3-----2-----3-----2-----3-------3-----2-----3-----2-----3----|
G|-------------------------------------------------------------------|
D|--0-0---0-0---0-0---0-0---0-0---0----------------------------------|
A|----------------------------------4-4---4-4---4-4---4-4---4-4---4--|
E|-------------------------------------------------------------------|

e|-------------------------------------------------------------------|
B|------3-----2-----3-----2-----3-------3-----2-----3-----2-----3----|
G|-------------------------------------------------------------------|
D|-------------------------------------------------------------------|
A|-------------------------------------------------------------------|
E|--3-3---3-3---3-3---3-3---3-3---3-3-3---3-3---3-3---3-3---3-3---3--|

e|-------------------------------------------------------------------|
B|------3-----2-----3-----2-----3-------3-----2-----3-----2-----3----|
G|-------------------------------------------------------------------|
D|--0-0---0-0---0-0---0-0---0-0---0----------------------------------|
A|----------------------------------4-4---4-4---4-4---4-4---4-4---4--|
E|-------------------------------------------------------------------|

e|-------------------------------------------------------------------|
B|------3-----2-----3-----2-----3-------3-----2-----3-----3-----5----|
G|-------------------------------------------------------------------|
D|-------------------------------------------------------------------|
A|-------------------------------------------------------------------|
E|--3-3---3-3---3-3---3-3---3-3---3-3-3---3-3---3-3---3-3---3-3------|


Chorus:
Same riff but guitar 2 comes in and adds abit of bass,

e|----------------------------|
B|----------------------------|
G|----------------------------|
D|-(7)------(7)---------------|
A|--5-x16----4-x16----(5)-----|
E|---------------------3-x32--|

At one point guitar 2 does this (2nd Chorus):

e|-------------------------|
B|-------------------------|
G|-------------------------|
D|---------4------6--7-----|
A|---7-----2------4--5-----|
E|---5---------------------|
'You can't depend on them'


Bridge:
e|--------------------------------------------------------------|
B|--------------------------------------------------------------|
G|----------------------4444444444444444-----6666666666666666---|
D|--7777777777777777----4444444444444444-----6666666666666666---|
A|--7777777777777777----2222222222222222-----4444444444444444---|
E|--5555555555555555--------------------------------------------|

e|-----------------------------|
B|-----------------------------|
G|--------4444--6666--7777-----|
D|--7777--4444--6666--7777(7)--|
A|--7777--2222--4444--5555-5---| 2nd guitar goes straight into bass line
E|--5555-----------------------|

Outro:
e|-----------------------------|
B|-----------------------------|
G|--7-------6------------------|
D|--7-x16---7-x16---5----------|
A|--5-------4-------5-x32------|
E|------------------3----------| x2

end on:
e|-----
B|-----
G|--7--
D|--7--
A|--5--
E|-----

Lyrics:
Verse:
When you feel so weak, and you scratch those stitches
reminding you of why you fell away after yourself

and you cant hold still, and you've gambled more than enough
you cant depend on them

Chorus:
still, i adore the taste of rain
and the bouncing down on the ground
it reminds me

make a wish tonight, all the stars are out
the sound of your hands were not out of reach cause

Verse 2:
its not out of reach
no this is not out of reach

you feel so weak, you burst those stitches
reminding you of just why you felt so cruel

Chorus:
still, i adore the taste of rain, and the bouncing down on the ground
it reminds me

still, i adore the taste of rain, and the bouncing down on the ground
you cant depend on them

make a wish tonight, all the stars are out
the sound of your hands were not out of reach just

Verse 3:
make a wish tonight
all the stars are out
the sound of your hands were not out of reach cause
(its not out, its not not out of reach)

Bridge:
they build you up, they build you up

Outro:
dont , dont run away dear
dont , dont run away dear
dont , dont run away dear
dont , dont run away dear

still, i adore the taste of rain
and the bouncing down on the ground
and the crackle of water well in the mark of all your

make a wish tonight
all the stars are out
its out of your hand but not out of reach
its out of your hand but not out of reach

========================
corrections? let me know
========================
comments
print report bad tab
2 comments total.
0 reply
AaronDY wrote on December 5 2007, 10:59 am

Sounds good tbh :]


good job x

0 reply
brandneweyes24 wrote on December 30 2009, 09:49 am

They've not got their guitars tuned down a 1/4 step, I don't think there's even such a thing. You've tabbed it wrong.

I want to post or [tab]
guest
You may want to rate the tab now too:
select rating
Please do not post tabs as comments. Select "correction" instead!