Oops, an error
Loading. Please wait.

Waiting For Go Tab

version 2
version 2

Whole song

952 views 1 this week
no commentswrite comment
1 2 3 4 5
please rate
add to favorites
launch autoscroll
font size
0
reset
how to read this tab
guitar tuner
Tab Pro tools
  • play this tab
  • loop segment
  • change instrument
  • show fretboard
  • metronome
×
Best way to learn
"Waiting For Go"
Autoscroll
slow
fast
+/-
esc
set tempo
stop
Contributor
----------------------------------------------------------------------------
                             SONG NAME - Band Name
----------------------------------------------------------------------------
Tabbed by: Jonny
Email: Jonny_172@hotmail.co.uk

Tuning:EADGBe

It's mostly correctish I think.

Rate please



INTRO

Guitar 1


PALM MUTED

0:00-0:13
e|-------------------------------------------------------------------------|
B|-------------------------------------------------------------------------|
G|--12----------------------12---------------------------------------------|
D|--12---x16----19---x16----12---x16----19---x16---------------------------|
A|--10----------17----------10----------17---------------------------------|
E|-------------------------------------------------------------------------|

Guitar 2

WITH DELAY

0:07-0:13
e|---------------------------------------------------------------|
B|--------12---13----12-13------------12---13----13p12-----------|
G|--12--12---12---12------------12--12---12----12------12--------|
D|---------------------------------------------------------------|
A|---------------------------------------------------------------|
E|---------------------------------------------------------------|



PRE VERSE THING


Guitar 1

0:13-0:26
e|-------------------------------------------------------------------------|
B|-------------------------------------------------------------------------|
G|-11-12-12-12-1212-11-12-11-12-11-12-14-14-14-1414-11-12-11-12-11-12---x2-|
D|-------------------------------------------------------------------------|
A|-------------------------------------------------------------------------|
E|-------------------------------------------------------------------------|

or you can play powerchords to the same rhtymn 

e|-------------------------------------------------------------------------
B|-------------------------------------------------------------------------
G|--11--12--12--12--1212--11--12--11--12--11--12---------------------------
D|--11--12--12--12--1212--11--12--11--12--11--12---------------------------
A|--9---10--10--10--1010--9---10--9---10--9---10---------------------------
E|-------------------------------------------------------------------------

e|-------------------------------------------------------------------------|
B|-------------------------------------------------------------------------|
G|------14--14--14--1414--11--12--11--12--11--12--------whole thing--------|
D|------14--14--14--1414--11--12--11--12--11--12--------is done------------|
A|------12--12--12--1212--9---10--9---10--9---10--------twice--------------|
E|-------------------------------------------------------------------------|

VERSE

0:26-0:50
    G        D
e|-------------------------------------------------------------------------|
B|-------------------------------------------------------------------------|
G|--12-------7-------------------------------------------------------------|
D|--12-x8----7-x8-------do this sequence 4 times---------------------------|
A|--10-------5-------------------------------------------------------------|
E|-------------------------------------------------------------------------|

PRE VERSE THING

Guitar 1

0:51-1:04
e|-------------------------------------------------------------------------|
B|-------------------------------------------------------------------------|
G|-11-12-12-12-1212-11-12-11-12-11-12-14-14-14-1414-11-12-11-12-11-12---x2-|
D|-------------------------------------------------------------------------|
A|-------------------------------------------------------------------------|
E|-------------------------------------------------------------------------|

or 

e|-------------------------------------------------------------------------
B|-------------------------------------------------------------------------
G|--11--12--12--12--1212--11--12--11--12--11--12---------------------------
D|--11--12--12--12--1212--11--12--11--12--11--12---------------------------
A|--9---10--10--10--1010--9---10--9---10--9---10---------------------------
E|-------------------------------------------------------------------------

e|-------------------------------------------------------------------------|
B|-------------------------------------------------------------------------|
G|------14--14--14--1414--11--12--11--12--11--12--------whole thing--------|
D|------14--14--14--1414--11--12--11--12--11--12--------is done------------|
A|------12--12--12--1212--9---10--9---10--9---10--------twice--------------|
E|-------------------------------------------------------------------------|

VERSE

1:04-1:15
    G        D
e|-------------------------------------------------------------------------|
B|-------------------------------------------------------------------------|
G|--12-------7-------------------------------------------------------------|
D|--12-x8----7-x8-------do this sequence 2 times---------------------------|
A|--10-------5-------------------------------------------------------------|
E|-------------------------------------------------------------------------|

PRE VERSE THING

1:15-1:29
e|-------------------------------------------------------------------------|
B|-------------------------------------------------------------------------|
G|-11-12-12-12-1212-11-12-11-12-11-12-14-14-14-1414-11-12-11-12-11-12---x2-|
D|-------------------------------------------------------------------------|
A|-------------------------------------------------------------------------|
E|-------------------------------------------------------------------------|

or 
e|-------------------------------------------------------------------------
B|-------------------------------------------------------------------------
G|--11--12--12--12--1212--11--12--11--12--11--12---------------------------
D|--11--12--12--12--1212--11--12--11--12--11--12---------------------------
A|--9---10--10--10--1010--9---10--9---10--9---10---------------------------
E|-------------------------------------------------------------------------

e|-------------------------------------------------------------------------|
B|-------------------------------------------------------------------------|
G|------14--14--14--1414--11--12--11--12--11--12--------whole thing--------|
D|------14--14--14--1414--11--12--11--12--11--12--------is done------------|
A|------12--12--12--1212--9---10--9---10--9---10--------twice--------------|
E|-------------------------------------------------------------------------|


BRIDGE

1:29-1:35
   G                                       D
e|-------------------------------------------------------------------------|
B|-------------------------------------------------------------------------|
G|--12-12-12-12---then bend these----------7-7-7-7--do the bendy-----------|
D|--12-12-12-12---strings all down---------7-7-7-7--thing again------------|
A|--10-10-10-10---slightly-----------------5-7-7-7-------------------------|
E|-------------------------------------------------------------------------|

1:35-1:40
    G                        G         F#    Em
e|-------------------------------------------------------------------------|
B|-------------------------------------------------------------------------|
G|--12-12-12-12-12-12-12-12------------------------------------------------|
D|--12-12-12-12-12-12-12-12---5-5-5-5--4-4-4--2----------------------------|
A|--10-10-10-10-10-10-10-10---5-5-5-5--4-4-4--2----------------------------|
E|----------------------------3-3-3-3--2-2-2--0----------------------------|

1:41-1:47
      G
e|-------------------------------------------------------------------------|
B|-------------------------------------------------------------------------|
G|-----12-12-12-12-12-x-12-x-12-12-----------------------------------------|
D|-----12-12-12-12-12-x-12-x-12-12----x2-----------------------------------|
A|-----10-10-10-10-10-x-10-x-10-10-----------------------------------------|
E|-------------------------------------------------------------------------|

1:47-2:13

PRE VERSE THING

e|-------------------------------------------------------------------------|
B|-------------------------------------------------------------------------|
G|-11-12-12-12-1212-11-12-11-12-11-12-14-14-14-1414-11-12-11-12-11-12---x4-|
D|-------------------------------------------------------------------------|
A|-------------------------------------------------------------------------|
E|-------------------------------------------------------------------------|

or  

e|-------------------------------------------------------------------------
B|-------------------------------------------------------------------------
G|--11--12--12--12--1212--11--12--11--12--11--12---------------------------
D|--11--12--12--12--1212--11--12--11--12--11--12---------------------------
A|--9---10--10--10--1010--9---10--9---10--9---10---------------------------
E|-------------------------------------------------------------------------

e|-------------------------------------------------------------------------|
B|-------------------------------------------------------------------------|
G|------14--14--14--1414--11--12--11--12--11--12--------whole thing--------|
D|------14--14--14--1414--11--12--11--12--11--12--------is done------------|
A|------12--12--12--1212--9---10--9---10--9---10--------fout times---------|
E|-------------------------------------------------------------------------|

OUTRO

2:13-2:24
e|-------------------------------------------------------------------------|
B|-------------------------------------------------------------------------|
G|--12-12-12-12---then bend these----------7-7-7-7--do the bendy-----------|
D|--12-12-12-12---strings all down---------7-7-7-7--thing again-----x2-----|
A|--10-10-10-10---slightly-----------------5-7-7-7-------------------------|
E|-------------------------------------------------------------------------|

2:26-end

Finish with G Powerchord 8 times then quickly slide out. 



| /  slide up
| \  slide down
| h  hammer-on
| p  pull-off
| ~  vibrato
| +  harmonic
| x  Mute note
============================================================================
comments
We did not receive enough feedback on this tab! Please rate:
print report bad tab
1 2 3 4 5
I want to post or [tab]
guest
You may want to rate the tab now too:
select rating
Please do not post tabs as comments. Select "correction" instead!