Oops, an error
Loading. Please wait.

A Little More Time Tab

version 1
version 1

Whole song

1,219 views 1 this week
no commentswrite comment
1 2 3 4 5
please rate
add to favorites
launch autoscroll
font size
0
reset
how to read this tab
guitar tuner
Tab Pro tools
  • play this tab
  • loop segment
  • change instrument
  • show fretboard
  • metronome
×
Best way to learn
"A Little More Time"
Autoscroll
slow
fast
+/-
esc
set tempo
stop
This is my first tab, and I couldn't find this song anywhere so I thought I'd give it a
I haven't gotten all the notes, but I got the general notes without alot of the
 I also don't have the second guitar part in the verse figured out, just the main 
 E-mail me with any feedback or corrections at danhauk@hotmail.com
Listen to the song to get the strumming patterns down.

Symbols:
  p    pull-off
  h    hammer-on
  /    slide up
  \    slide down
  tr   tremolo pick

Intro

eb|------------------xx--------------|
Bb|------------------xx---9999-------|
Gb|------------------xx--------------|
Db|-2---4p2--2-------xx-777777-------| x2
Ab|-2------2---2-----xx-777777-------|
Eb|-0------------4-4-xx-555555-------|

Verse

eb|--------------------------|
Bb|--------------------------|
Gb|--------------------------|
Db|--2222--2222--77777777----| x2
Ab|--2222--2222--77777777----|
Eb|--0000--4444--55555555----|

eb|----------------------|---------------------|
Bb|--------------------------------------------|only play this the first time
Gb|--66666666--55555555--|---------------------|
Db|--66666666--55555555--|2222222222222222-----| x2
Ab|--44444444--33333333--|2222222222222222-----|
Eb|----------------------|0000000000000000-----|

Chorus

eb|-----------------------|
Bb|-----------------------|
Gb|-----------------------|
Db|--22222222--77777777---|
Ab|--22222222--77777777---|
Eb|--00000000--55555555---|

Post-Chorus
(guitar 1 plays intro while guitar 2 plays this)

eb|------------------------------------|
Bb|------------------------------------|
Gb|-/2--1------------4----4h6----------|
Db|-------2------2h4----------7--6--4--|
Ab|------------------------------------|
Eb|------------------------------------|

Verse

Chorus

Bridge/Solo

eb|-------------------7-7\5\4---------------------------------------|
Bb|-----------2-4-5---9-9\7\5--7-\2/5--0-2-5---9/12--7/9--5/7--2/5--|
Gb|-----1-2-4-------------------------------------------------------|
Db|-2-4-------------------------------------------------------------|
Ab|-----------------------------------------------------------------|
Eb|-----------------------------------------------------------------|

eb|-------------------------------|
Bb|-------------------------------|
Gb|----------------tr(1)--tr(4)---|
Db|--tr(2)--tr(4)-----------------| x2
Ab|-------------------------------|
Eb|-------------------------------|

eb|-------7-7\5\4---------------------------------------|
Bb|--5----9-9\7\5--7-\2/5--0-2-5---9/12--7/9--5/7--2/5--|
Gb|-----------------------------------------------------|
Db|-----------------------------------------------------|
Ab|-----------------------------------------------------|
Eb|-----------------------------------------------------|

eb|-------------------------------|
Bb|-------------------------------|
Gb|----------------tr(1)--tr(4)---|
Db|--tr(2)--tr(4)-----------------| x2
Ab|-------------------------------|
Eb|-------------------------------|

Chorus

End on

eb|-----
Bb|-----
Gb|-----
Db|--2--
Ab|--2--
Eb|--0--
comments
We did not receive enough feedback on this tab! Please rate:
print report bad tab
1 2 3 4 5
I want to post or [tab]
guest
You may want to rate the tab now too:
select rating
Please do not post tabs as comments. Select "correction" instead!