Oops, an error
Loading. Please wait.

Baby Blue Tab

version 2
version 2

Whole song

Interactive

7,280 views 3 this week
4 commentsread comments
1 2 3 4 5
accurate
x 7
add to favorites
launch autoscroll
font size
0
reset
how to read this tab
guitar tuner
Tab Pro tools
  • play this tab
  • loop segment
  • change instrument
  • show fretboard
  • metronome
×
Best way to learn
"Baby Blue"
Autoscroll
slow
fast
+/-
esc
set tempo
stop
Difficulty
novice
I saw that no one liked the other one so i thought i would try...no drop D.

E<----------------------->
B<-----------------------> its important for
G<--3---4----------------> that E to ring on
D<--4---4----------------> this intro.
A<--2---2---------------->
E<--2---0---------------->
           4x
Its a faster growing greed...


E<----------------------->
B<-----------------------> listen to the
G<--3---4----------------> strumming pattern
D<--4---4----------------> on this part.
A<--2---2---------------->
E<--2---0---------------->
           6x
I do try, I got a line...

E<------------------------->
B<------------------------->
G<--4---4---4---4---------->
D<--4---4---4---4---------->
A<--2---2---2---2---------->
E<--4---0---2---0---------->
           2x
But it's okay...


E<---------------------------------------->
B<---------------------------------------->
D<-----------4-4---------4-4----~--4------>
G<-------4-4----4-4---4-4---4-4-~--4------>
A<---1-1-----------1-1----------~--2------>
E<------------------------------~--0------>

E<----------------------->
B<----------------------->
D<--3---4---------------->
G<--4---4---------------->
A<--2---2---------------->
E<--2---0---------------->
          4x
I know you want it all...


E<------------------------->
B<------------------------->
D<--4---4---4---4---------->
G<--4---4---4---4---------->
A<--2---2---2---2---------->
E<--4---0---2---0---------->
           2x
But it's okay...

E<------------------------->
B<------------------------->
D<--4---3---4---4---4------> hit each chord once
G<--4---4---4---4---4------>
A<--2---2---2---2---2------>
E<--2---2---4---2---0------>

I dont want you to love me anymore...


E<--------------->
B<--------------->
D<--4---3---4---->
G<--4---4---4----> Outro
A<--2---2---2---->
E<--4---2---0---->

With my bags packed, I'm ready to go...

Hope you liked it, awesome song even if you don't...
comments
print report bad tab
4 comments total. Showing first comments.
-1 reply
nico-101 wrote on August 18 2006, 07:33 pm

come on man
that sucks poor.....boo
boo
boo

+1 reply
nico-101 wrote on August 18 2006, 07:33 pm

i liked it

0 reply
Schwabee wrote on January 14 2008, 08:34 pm

better than the other ones

I want to post or [tab]
guest
You may want to rate the tab now too:
select rating
Please do not post tabs as comments. Select "correction" instead!