Oops, an error
Loading. Please wait.

Baby Blue tab

version 3
version 3

Whole song

Interactive

127 views 3 this week
no commentswrite comment
1 2 3 4 5
3 more votes to show rating
add to favorites
×
Save as Personal and add changes to this tab that will be seen only by you. Learn more ›
×
You can save this tab as Personal to edit and correct it or add notes. All changes will be seen only by you. Learn more »
launch autoscroll
font size
0
reset
how to read this tab
guitar tuner
edit
Autoscroll
slow
fast
+/-
esc
set tempo
stop
Author
Difficulty
Band: The Early November
Song: Baby Blue
Tuning: eADGBE
Tabbed by: Brandon Bushnell

None of the tabs I looked up on this song were even close so I sat down and tried to learn it by ear.
Not saying it is 100% but it sounds pretty good with the song. 



[Intro]: Strum Gently
E|----------------------------------|------|
B|-------------5-5-5-5-5------------|--5~--|
G|--4-4-4-4-4--4-4-4-4-4------------|--4~--|
D|--4-4-4-4-4--x-x-x-x-x--Repeat-4x-|--x---|
A|--2-2-2-2-2--2-2-2-2-2------------|--2~--|
e|----------------------------------|------|

 [Verse 1]:
E|------------------------------------------------|--------------------------------|
B|--------------------55-55-55-55-5555------------|--------------------------------|
G|--44-44-44-44-4444--44-44-44-44-4444------------|-44-44-44-44-4444---------------|
D|--44-44-44-44-4444--xx-xx-xx-xx-xxxx-Repeat 3x--|-44-44-44-44-4444-4---4---4h6p4-|
A|--22-22-22-22-2222--22-22-22-22-2222------------|-22-22-22-22-2222---4---4-------|
e|------------------------------------------------|--------------------------------|


E|------------------------------------------------|------|
B|--------------------55-55-55-55-5555------------|--5~--|
G|--44-44-44-44-4444--44-44-44-44-4444------------|--4~--|
D|--44-44-44-44-4444--xx-xx-xx-xx-xxxx-Repeat 2x--|--x~--|
A|--22-22-22-22-2222--22-22-22-22-2222------------|--2~--|
e|------------------------------------------------|------|


 [Chorus]:
E|--------------------------------------------------------------|
B|----------------------------------------5-5-5555-5-5-5555-----|
G|------4--------4~---4-4-4444--4-4-4444--4-4-4444-4-4-4444-----|
D|----4----2--4--4~---4-4-4444--4-4-4444--x-x-xxxx-x-x-xxxx--2x-|
A|--2------2--4--2~---2-2-2222--2-2-2222--2-2-2222-2-2-2222-----|
e|---------0--2--0~---------------------------------------------|



E|-------------------------------------------------|
B|-------------------------------------------------|
D|------------4-4--------------4-4-----------4-----|
G|--------4-4-----4-4-----4-4------4-4-------4-----|
A|---1-1--------------1-1--------------------2-----|
E|-------------------------------------------------|
[PM] . . . . . . . .  . . . .  . . . .


 [Verse 2]:
E|------------------------------------------------|--------------------------------|
B|--------------------55-55-55-55-5555------------|--------------------------------|
G|--44-44-44-44-4444--44-44-44-44-4444------------|-44-44-44-44-4444---------------|
D|--44-44-44-44-4444--xx-xx-xx-xx-xxxx--2x--------|-44-44-44-44-4444-4---4---4h6p--|
A|--22-22-22-22-2222--22-22-22-22-2222------------|-22-22-22-22-2222---4---4-------|
e|------------------------------------------------|--------------------------------|



E|------------------------------------------------|------|
B|--------------------55-55-55-55-5555------------|--5~--|
G|--44-44-44-44-4444--44-44-44-44-4444------------|--4~--|
D|--44-44-44-44-4444--xx-xx-xx-xx-xxxx-Repeat 2x--|--x~--|
A|--22-22-22-22-2222--22-22-22-22-2222------------|--2~--|
e|------------------------------------------------|------|



[Chorus]:
E|--------------------------------------------------------------|
B|----------------------------------------5-5-5555-5-5-5555-----|
G|------4--------4~---4-4-4444--4-4-4444--4-4-4444-4-4-4444-----|
D|----4----2--4--4~---4-4-4444--4-4-4444--x-x-xxxx-x-x-xxxx--2x-|
A|--2------2--4--2~---2-2-2222--2-2-2222--2-2-2222-2-2-2222-----|
e|---------0--2--0~---------------------------------------------|


 [Bridge]:
E|----------0~--3~--0~-----------------|---------------------|
B|------2~--0~--0~--0~-----------------|------7--------------|
G|--4~--3~--1~--0~--0~-----------------|----8---8--repeat 8x-|
D|--4~--4~--2~--0~--1~-----------------|--9------------------|
A|--2~--4~--0~--2~--0~-----------------|---------------------|
e|------2~------3~--2~----Pick Slide---|---------------------|


 [Outro]:
E|-------------------------------------------------------------------|-----------|
B|--99999999--77777777--999999999--12121212--99999999--77777777--9~--|-----------|
G|--99999999--77777777--888888888--11111111--99999999--77777777--8~--|--4~-------|
D|--xxxxxxxx--xxxxxxxx--xxxxxxxxx--xxxxxxxx--xxxxxxxx--xxxxxxxx--x---|--4~-------|
A|--77777777--55555555--666666666--99999999--77777777--55555555--6~--|--2~--3x---|
e|-------------------------------------------------------------------|--0~-------|



[~] = Let Ring
[h] = Hammer-on
[p] = Pull-off
[.] = Palm Mute
[x] = Mute String

It's a faster growing green
That flows through these leaves
I have, I try
I guess we'll be alright

Way to try
I got a line for you from me, better nice
A beautiful baby blue sky that's looking up at you
Now watch it fade away

But it's okay to come around
With nights like this are never ending
I tried so hard to make this perfect
You and I somehow
We can't see eye to eye together
We always knew that you were better

I know you want it all and you got me
Sorry I never was everything you ever dreamed
But kept at bay for just in case that day

But it's okay to come around
With nights like this are never ending
I tried so hard to make this perfect
You and I somehow
We can't see eye to eye together
We always knew that you were better

I don't want you to love me anymore

With my bags packed and ready to go
Nothing's ever hurt so much for me than to let you go, to let you go
With my bags packed and ready to go
Nothing's ever hurt so much for me than to let you go, to let you go.

            
            
Suggest correction
Creating personal tab
Creating personal tab
You can edit any tab online and save it as your Personal.

You can edit, replace or remove any tab part or add personal notes – all changes will be seen only by you.

Personal tabs can be accessed anytime from any device, even offline.
Learn more »
Give kudos to tab author, rate the tab!
1 2 3 4 5
comments
print report bad tab
guest
You may want to rate the tab now too:
select rating
Wanna post a correction for this tab? Suggest correction