Oops, an error
Loading. Please wait.

Call Off The Bells Tab

version 2
version 2

Whole song

4,063 views 15 this week
6 commentsread comments
1 2 3 4 5
excellent!
x 6
add to favorites
launch autoscroll
font size
0
reset
how to read this tab
guitar tuner
Tab Pro tools
  • play this tab
  • loop segment
  • change instrument
  • show fretboard
  • metronome
Autoscroll
slow
fast
+/-
esc
set tempo
stop
Contributor
Tuning
D# G# C# F# A# D#
Artist: The Early November
Song: Call Off The Bells
Album: In Currents


(/) Slide Up
(\) Slide Down
(h) Hammer On
(m) Mute
(T) play with thumb

Tuned half step down

Intro

Eb|-------------------------------------------------------------------|
Bb|--------------------------------0----------8/10\4-----3-----3-x-3--|
Gb|--5/7\5\4--5-----5/7\5\4--4----0-----------7/9 \5----4-4----4-x-4--|
Db|--7/9\7\5--------7/9\7\5----0h2---------------------5---5---5-x-5--|
Ab|--------------------------3------------------------6------3-----3--|
Eb|-----------5-----------------------------0-------------------------|
                      T
Verse (x2)

"Something in the way I..."
Eb|----------------3-----------------------------------------------------|
Bb|-----------------------------------0----------8/10\4-----3-----3-x-3--|
Gb|--5/7\5\4--5---5----5/7\5\4--4----0-----------7/9 \5----4-4----4-x-4--|
Db|--7/9\7\5------5----7/9\7\5----0h2---------------------5---5---5-x-5--|
Ab|-----------------------------3------------------------6------3-----3--|
Eb|-----------5---5----------------------------0-------------------------|
              T   T

Chorus (x2)

Chords were a little tricky to figure out. This is what I got.
Listen for strumming patterns.

"That you've grown from..."
Eb|--3---/7-------3--------|
Bb|--3---/8---7---3--------|
Gb|--4---/7---7---4--/5-4--|
Db|--5---/9---7---5--/4-4--|
Ab|--5---/7---5---3--/5-5--|
Eb|--3---------------------|

Intro

verse (x2)

Bridge

"Once upon a time..."
Eb|--------------------3-2--|
Bb|--1-----1-----0-----3-3--|
Gb|--0-----0-----0-----2-2--|
Db|--2-----2-----2-----0-0--|
Ab|--0-----3-----2----------|
Eb|--------------0----------|

End with intro
comments
print report bad tab
6 comments total. Showing first comments.
0 reply
RHCPfan652 wrote on August 8 2012, 10:09 am

Much better than my version.. Well done

+2 reply
mka12992 wrote on November 27 2012, 06:44 pm

Good job, but I've found that the main riff is much easier to play this way... Though the notes seem to be mostly the same, so I guess it's a preference thing.


Intro:
Eb|---------|----|-------------|-----------|----|--3/5p0|-------------|-----|----|
Bb|--1/3\1p0|-1--|[1]---1/3\1p0|-0---------|0---|--3/5p0|-------3-----|-3-3-|[3]-|
Gb|--2/4\2p0|-2--|[2]---2/4\2p0|-0--(0)---0|----|-------|-----4---4---|-4-4-|[4]-|
Db|---------|----|-------------|-------0h2-|----|-------|---5-------0-|-----|----|
Ab|---------|-0--|[0]----------|-3---------|----|-------|-6-----------|3--3-|[3]-|
Eb|---------|----|-------------|-----------|----|0------|-------------|-----|----|

Verse:
Eb|---------|------3|[3]-------------|-----------|----|--3/5p0|-------------|-----|----|
Bb|--1/3\1p0|-1--1--|---------1/3\1p0|-0---------|0---|--3/5p0|-------3-----|-3-3-|[3]-|
Gb|--2/4\2p0|-2--2--|---------2/4\2p0|-0--(0)---0|----|-------|-----4---4---|-4-4-|[4]-|
Db|---------|----x--|----------------|-------0h2-|----|-------|---5-------0-|-----|----|
Ab|---------|-0--0--|----------------|-3---------|----|-------|-6-----------|3--3-|[3]-|
Eb|---------|-------|----------------|-----------|----|0------|-------------|-----|----|

0 reply
mka12992 wrote on November 27 2012, 06:51 pm

I meant to add that the note in parenthesis is a ghost note, and the notes in brackets just mean to hold it out.

I want to post or [tab]
guest
You may want to rate the tab now too:
select rating
Please do not post tabs as comments. Select "correction" instead!