Oops, an error
Loading. Please wait.

Decoration Tab

7,893 views 6 this week
4 commentsread comments
1 2 3 4 5
excellent!
x 7
add to favorites
launch autoscroll
font size
0
reset
how to read this tab
guitar tuner
Tab Pro tools
  • play this tab
  • loop segment
  • change instrument
  • show fretboard
  • metronome
×
Best way to learn
"Decoration"
Autoscroll
slow
fast
+/-
esc
set tempo
stop
Contributor
Intro
eb|------------------------------------------------------|
Bb|------------------------------------------------------|
Gb|-------11---------11---------7--------7---------------|
Db|----9------9----------9---------9--------9------x2----|
Ab|-7------------7----------7---------7--------7---------|
Db|------------------------------------------------------|

Intro 2/Chorus
(Guitar 1)
eb|--------------------------------|
Bb|--------------------------------|
Gb|--------------------------------|
Db|--5--2--9--7--5--2--9--7--5--5--|
Ab|--5--2--9--7--5--2--9--7--5--5--|
Db|--5--2--9--7--5--2--9--7--5--5--|
[listen to the song for how long to hold each chord, the 555 at the end is held longer)

(Guitar 2)
eb|-----------------------------------------------------------|
Bb|-----------------------------------------------------------|
Gb|------7-----7-----7------7-----11------11------11------11--|
Db|-7/9----7/9---7/9---7/9----7/9----7/9-----7/9------7/9-----|
Ab|-----------------------------------------------------------|
Db|-----------------------------------------------------------|

eb|--------------------------------------------------|
Bb|--------------------------------------------------|
Gb|-14--11-9--7--14--11-9--7-----------------9--12---|
Db|-x---x--x--x--x---x--x--x---second time:--x--x----|
Ab|-12--9--7--5--12--9--7--5-----------------7--10---|
Db|--------------------------------------------------|

Verse
(Guitar 1)
eb|-------------------------------------------------------|
Bb|------8-----8-------3-------3-------3-------3----------|
Gb|--9-9---9-9----5-5----4-5-5---4-5-5---4-5-5--4---------|
Db|--9-9---9-9----5-5------5-5-----5-5-----5-5-------0~~--|
Ab|--7-7---7-7----3-3------3-3-----3-3-----3-3-------0~~--|
Db|--------------------------------------------------0~~--|

(Guitar 2)
eb|---------------------|
Bb|---------------------|
Gb|-9-12--17--16--14----|
Db|-x-x---x---x---x-----|
Ab|-7-10--15--14--12----|
Db|---------------------|

Bridge
eb|-----------------------------|
Bb|-----------------------------|
Gb|-12-11--7/9/7--2/4/2---5---7-|
Db|-----------------------5---7-|
Ab|-----------------------3---5-|
Db|---------------------------0-|

eb|------------------------------------------------------|
Bb|------------------------------------------------------|
Gb|-------11---------11---------7--------7---------------|
Db|----9------9----------9---------9--------9------x2----|
Ab|-7------------7----------7---------7--------7---------|
Db|------------------------------------------------------|
comments
print report bad tab
4 comments total. Showing first comments.
0 reply
ssmoke21 wrote on August 14 2006, 12:57 am

I'm pretty sure this:
eb|-----------------------------------------------------------|
Bb|-----------------------------------------------------------|
Gb|------7-----7-----7------7-----11------11------11------11--|
Db|-7/9----7/9---7/9---7/9----7/9----7/9-----7/9------7/9-----|
Ab|-----------------------------------------------------------|
Db|-----------------------------------------------------------|
should be:
eb|-----------------------------------------------------------|
Bb|--------------------------------7-------7--------7------7--|
Gb|------7-----7-----7------7---------------------------------|
Db|-7h9----7h9---7h9---7h9----7h9----7h9-----7h9------7h9-----|
Ab|-----------------------------------------------------------|
Db|-----------------------------------------------------------|
and these:
eb|-------------------------------------------------------|
Bb|------8-----8-------3-------3-------3-------3----------|
Gb|--9-9---9-9----5-5----4-5-5---4-5-5---4-5-5--4---------|
Db|--9-9---9-9----5-5------5-5-----5-5-----5-5-------0~~--|
Ab|--7-7---7-7----3-3------3-3-----3-3-----3-3-------0~~--|
Db|--------------------------------------------------0~~--
should be:
eb|-------------------------------------------------------|
Bb|------8-----8------------------------------------------|
Gb|--9-9---9-9----9-9--7---9-9-7---9-9-7---9-9--7---------|
Db|--9-9---9-9----9-9----9-9-9---9-9-9---9-9-9----9--0~~--|
Ab|--7-7---7-7----7-7------7-7-----7-7-----7-7-------0~~--|
Db|--------------------------------------------------0~~--
At least this is the stuff I saw when I saw them live

0 reply
isomniac19 wrote on April 27 2007, 04:50 pm

I know this is probably a stupid question, but how do you tune down to that step tuning? do you just go half a step down?

0 reply
ohhh shoot wrote on July 15 2007, 05:08 pm

get a tuner, tune to D#.
or, the open tuning is

A|--0---
E|-6----

and when they sound the same, just tune the rest normally using the low E as a guide.

to change back, make the 6 a 4 and your back in standard

I want to post or [tab]
guest
You may want to rate the tab now too:
select rating
Please do not post tabs as comments. Select "correction" instead!