Oops, an error
Loading. Please wait.

Everythings Too Cold But Youre So Hot tab

version 2
version 2

Whole song

73 views 1 this week
no commentswrite comment
1 2 3 4 5
3 more votes to show rating
add to favorites
×
Save as Personal and add changes to this tab that will be seen only by you. Learn more ›
×
You can save this tab as Personal to edit and correct it or add notes. All changes will be seen only by you. Learn more »
launch autoscroll
font size
0
reset
how to read this tab
guitar tuner
edit
Autoscroll
slow
fast
+/-
esc
set tempo
stop
Band: The Early November 
Song: Everything's too cold but you're so hot
Tuning: Eb Low to high: D#G#C#F#A#D#
Tabbed By: Brandon Bushnell

 [Intro]:
D#|----------------|-------------|----------------|-----------------|
G#|----------8-----|-------8-----|---------8------|----------8------|
C#|----------------|-------------|----------------|-----------------|
F#|-----9-------4X-|---9------4X-|----9-------4X--|-----9------4x---| Repeat 4x
A#|--10---10-------|-7---7-------|----------------|--10---10--------|
D#|----------------|-------------|--8---8---------|-----------------|


  [Verse]:
D#|---------------------------|
G#|-------8---8---8--------8--|
C#|--9----0---x---x----9---0--|
F#|--0--------9---9----0------|
A#|-----------7---x-----------|
D#|---------------8-----------|



D#|---------------------------------|
G#|---8-------8---7---7---5---5-----|
C#|---x-----------------------------|
F#|---9-----9---9---9---9---5---5~--|
A#|--10--10-------------------------|
D#|---------------------------------|


  [Verse 2]:
D#|----------------|-------------|
G#|----------8-----|-------8-----|
C#|----------------|-------------|
F#|-----9-------4X-|---9------4X-| Repeat 9x
A#|--10---10-------|-7---7-------|
D#|----------------|-------------|


D#|---------------------------|
G#|-------8---8---8--------8--|
C#|--9----0---x---x----9---0--|
F#|--0--------9---9----0------|
A#|-----------7---x-----------|
D#|---------------8-----------|


D#|----------------|
G#|----------8-----|
C#|----------------|
F#|-----9----------| Repeat 8x
A#|--10---10-------|
D#|----------------|


 [Bridge]:
D#|-----------------------------|----------------------------------------------
G#|-----------------------------|----------------------------------------------
C#|--121212121212--1111111------|--999999999999999--1212121212121212--1111111--
F#|--x-x-x-x-x-x---x-x-x-x--3x--|--xxxxxxxxxxxxxxx--x-x-x-x-x-x-x-x---x-x-x-x--
A#|--101010101010--9-9-9-9------|--777777777777777--1010101010101010--9-9-9-9--
D#|-----------------------------|----------------------------------------------


D#|-----------------------------------------------------------------------|
G#|-----------------------------------------------------------------------|
C#|--12121212121212--1111111111--1616161616161616--1919191919191919--12~--|
F#|--x-x-x-x-x-x-x---x-x-x-x-x---x-x-x-x-x-x-x-x---x-x-x-x-x-x-x-x---x----|
A#|--10101010101010--1212121212--1414141414141414--1717171717171717--10~--|
D#|-----------------------------------------------------------------------|

 [Outro]: Play till end of song. 
D#|---------------------------------|
G#|---8-------8---7---7---5---5-----|
C#|---x-----------------------------|
F#|---9-----9---9---9---9---5---5~--|
A#|--10--10-------------------------|
D#|---------------------------------|

This is being played behind the heavy distorted rhythm. 
Sorry I am not tabbing that part out can't figure it out.. 


 [Song ends with this.]
D#|-----|-----------------|------|
G#|-8~--|---------8-------|--8~--|
C#|-x---|-----------------|--x---|
F#|-9~--|----9--------3x--|--9~--|
A#|-10~-|10----10---------|--7---|
D#|-----|-----------------|------|



[~] = Let Ring
[x] = Mute String




Your smile is like the sun to me
So bright it's weakening
But so sweet

But of all that you'd like from me
A smile and be okay
Sorry

It's taken me everyday
To accept that I have to say
Say no

I'll be right here
(Say something's wrong)
(To just find fault)
She complains the room's too cold
(But when I learn to make heat,)
It's just to disappoint
Oh you know I'll forget...
So quick

Time,
It makes it fine
That's how we make this life
Makes it fine
It makes it right

Your eyes, they can't see
(What it takes from me)
Or how it hurts
(Or how it holds our hands)

I'll be right here
(Say something's wrong)
(To just find fault)
She complains the room's too cold
(But when I learn to make heat,)
It's just to disappoint
Oh you know I'll forget...
So quick

You know I always forget (3x)

            
            
Suggest correction
Creating personal tab
Creating personal tab
You can edit any tab online and save it as your Personal.

You can edit, replace or remove any tab part or add personal notes – all changes will be seen only by you.

Personal tabs can be accessed anytime from any device, even offline.
Learn more »
Give kudos to tab author, rate the tab!
1 2 3 4 5
comments
print report bad tab
guest
You may want to rate the tab now too:
select rating
Wanna post a correction for this tab? Suggest correction