Oops, an error
Loading. Please wait.

From Here To La tab

version 3
version 3

Whole song

58 views 1 this week
no commentswrite comment
1 2 3 4 5
3 more votes to show rating
add to favorites
×
Save as Personal and add changes to this tab that will be seen only by you. Learn more ›
×
You can save this tab as Personal to edit and correct it or add notes. All changes will be seen only by you. Learn more »
launch autoscroll
font size
0
reset
how to read this tab
guitar tuner
edit
Autoscroll
slow
fast
+/-
esc
set tempo
stop
Tuning: Eb Ab Db Gb Bb eb - From Here To LA by The Early November - Figure the strumming patterns out yourself!!
----------------------------------------------------------------------------------------------------------------
Guitar 1 only - Best for a solo performances - But I promise it's correct!
----------------------------------------------------------------------------------------------------------------


For the record I'm tired
I've been running for days
But I can't hide anymore
It's time to just settle here

Verse/Intro: 0:00 - :34
e|------3---------3---------3---------------------------------|
B|------3---------3---------3---------------------------------|
G|------0---------0---------0-----------------0---------------|
D|------0---------x---------x---------0h2-0h2-0---0-----------|
A|------x---------2---------3---------3---3-------x-----------| 
E|------3-----------------------------------------3-----------| 

The rain beats on my head
And I'm tired and cold
But I need shelter and sleep
So I can dream of a day when I return and I'm so bitter to you

Chorus: :35 - :56
e|----3---x---------3-----------2------------|
B|----3---x---------3-----------3------------|
G|----0---x---------0-----------2------------|
D|----2---x---------2-----------0------------|
A|----2-------------3-----------0------------|
E|----0--------------------------------------| 

*Second Guitar comes in here*

Verse: 0:56 - 1:42
e|------3---------3---------3-------------------------|
B|------3---------3---------3-------------------------|
G|------0---------0---------0-----------------0-------| 
D|------0---------x---------x---------0h2-0h2-0-------|
A|------x---------2---------3---------3---3-----------| 
E|------3---------------------------------------------| 

Chorus: 1:44 - 2:03
e|----3---x---------3-----------2------------|
B|----3---x---------3-----------3------------|
G|----0---x---------0-----------2------------|
D|----2---x---------2-----------0------------|
A|----2-----------2/3-----------0------------|
E|----0--------------------------------------|

Chorus: "From here to L.A" 2:04 - 
e|---3-----------3------------3-----------3----------|
B|---3-----------3------------3-----------3----------|
G|---0-----------0------------0-----------0----------|
D|---0-----------x------------2-----------2----------|
A|---x-----------2------------3-----------3----------|
E|---3-----------------------------------------------|

e|------3---------3---------3-------------------------|
B|------3---------3---------3-------------------------|
G|------0---------0---------0-----------------0-------|
D|------0---------x---------x---------0h2-0h2-2-------|
A|------x---------2---------3---------3---3-----------| 
E|------3---------------------------------------------|  (repeat until ending)

End on a Full G5
e|------3~--------------|
B|------3~--------------|
G|------0~--------------|
D|------0~--------------|
A|------x---------------| 
E|------3~--------------| 


            
            
Suggest correction
Creating personal tab
Creating personal tab
You can edit any tab online and save it as your Personal.

You can edit, replace or remove any tab part or add personal notes – all changes will be seen only by you.

Personal tabs can be accessed anytime from any device, even offline.
Learn more »
Give kudos to tab author, rate the tab!
1 2 3 4 5
comments
print report bad tab
guest
You may want to rate the tab now too:
select rating
Wanna post a correction for this tab? Suggest correction