Oops, an error
Loading. Please wait.

I Want To Hear You Sad Tab

version 1
version 1

Whole song

4,163 views 6 this week
1 commentread comment
1 2 3 4 5
worth learning
x 5
add to favorites
launch autoscroll
font size
0
reset
how to read this tab
guitar tuner
Tab Pro tools
  • play this tab
  • loop segment
  • change instrument
  • show fretboard
  • metronome
Autoscroll
slow
fast
+/-
esc
set tempo
stop
Early November
I want to hear you sad
By Kyle Woodward

Intro uses hermonics

e|-------------------------------------------------------------------| 
B|-------------------------------------------------------------------| 
G|-------------------------------------------------------------------| 
D|--------------------------(5)-----------------------------(5)------| 
A|-----(5)---(5)-----(5)----------------(5)---(5)-----(5)------------| 
D|3--------3-------3-----3---------3--------3-------3-----3----------| 

e|-------------------------------------------------------------------| 
B|-------------------------------------------------------------------| 
G|-------------------------------------------------------------------| 
D|--------------------------(5)-----------------------------(5)------| 
A|-----(5)---(5)-----(5)----------------(5)---(5)-----(5)------------| 
D|5--------5-------5-----5---------5--------5-------5-----5----------|

Intro guitar 2
e|-------------------------------------------------------------------| 
B|-------------------------------------------------------------------| 
G|---13---11-10--8---------------------------------------------------| 
D|---x----x--x---x---------------------------------------------------| 
A|---11---9--8---6---------------------------------------------------| 
D|-------------------------------------------------------------------|

Chorus
e|-------------------------------------------------------------------| 
B|-------------------------------------------------------------------| 
G|---7777777777777---------------------------------------------------| 
D|---7777777777777-----555555555555----777777777777---555555555555---| 
A|---5555555555555-----555555555555----777777777777---555555555555---| 
D|---------------------555555555555----777777777777---555555555555---| 

Verse x2

Break down
e|-------------------------------------------------------------------| 
B|-------------------------------------------------------------------| 
G|-------------------------------------------------------------------| 
D|---444444--5555555-------------------------------------------------| 
A|---444444--5555555-------------------------------------------------| 
D|---444444--5555555-------------------------------------------------|

Chorus x 2

Thats the whole song about 99% correct
comments
print report bad tab
1 comment total.
0 reply
SlyBiscut wrote on December 4 2003, 12:00 am

it's in drop d and the break down is more like this
E|----------------------------------------------------------------
B|----------------------------------------------------------------
G|7-7---7-7---7-7---7-7---x-x-x-x-7-7---7-7---7-7---7-7---x-x-x-x-
D|7-7---7-7---7-7---7-7---x-x-x-x-7-7---7-7---7-7---7-7---x-x-x-x-
A|4-4---4-4---4-4---4-4---x-x-x-x-5-5---5-5---5-5---5-5---x-x-x-x-
D|4-4---4-4---4-4---4-4---x-x-x-x-5-5---5-5---5-5---5-5---x-x-x-x-

I want to post or [tab]
guest
You may want to rate the tab now too:
select rating
Please do not post tabs as comments. Select "correction" instead!