Oops, an error
Loading. Please wait.

Is It My Fault Tab

version 2
version 2

Whole song

1,162 views 1 this week
5 commentsread comments
1 2 3 4 5
accurate
x 3
add to favorites
launch autoscroll
font size
0
reset
how to read this tab
guitar tuner
Tab Pro tools
  • play this tab
  • loop segment
  • change instrument
  • show fretboard
  • metronome
×
Best way to learn
"Is It My Fault"
Autoscroll
slow
fast
+/-
esc
set tempo
stop
Contributor
Difficulty
Tuning
novice
D# G# C# F# A# D#
                             Is it my Fault - The Early November

Tabbed by: drawtheline
Email: xxsaddlexupxx@aim.com

Tuning: Eb Ab Db Gb Bb eb (half a step down)

   Intro/Verse
e|--------------------------------------------------------------------------|
B|--------------------------------------------------------------------------|
G|------------------5--5------4------5--------------------------------------|
D|---5h7-----5------5--5------4------5--------------------------------------|
A|---5h7-----5------3--3------2------3--------------------------------------|
E|---5-------3------3--3------2------3--------------------------------------|
   Chorus
e|--------------------------------------------------------------------------|
B|--------------------------------------------------------------------------|
G|-------------5-5-5-5------------------------------------------------------|
D|--3-3-3-3----5-5-5-5------5-5-5---5-5---5-5-5-----------------------------|
A|--3-3-3-3----3-3-3-3------5-5-5---5-5---5-5-5-----------------------------|
E|--1-1-1-1-----------------3-3-3---3-3---3-3-3-----------------------------|
   Bridge
e|--------------------------------------------------------------------------|
B|--------------------------------------------------------------------------|
G|---5----x8----------------------------------------------------------------|
D|---5-----------------5----x8----------------------------------------------|
A|---3-----------------5----------------------------------------------------|
E|---------------------3----------------------------------------------------|

Order: intro/verse
       chorus
       intro/verse
       chorus
       bridge
       chorus


| /  slide up
| \  slide down
| h  hammer-on
| p  pull-off
| ~  vibrato
| +  harmonic
| x  Mute note
comments
We did not receive enough feedback on this tab! Please rate:
print report bad tab
1 2 3 4 5
5 comments total. Showing first comments.
0 reply
jd44 wrote on July 18 2007, 10:02 am

the other tab isn't in standard tuning, it's tuned down a half step

0 reply
Steve-O~32 wrote on January 16 2008, 01:12 pm

the intro/verse seems good, but the chorus is wrong...it should be


Chorus
e|--------------------------------------------------------------|
B|-------------------------------------------
-------------------|
G|--------------5-5-5-5-----------------------------------------|
D|--3-3-3-3-----5-5-5-5-----5-5
-5---5-5---5-5-5-----------------|
A|--3-3-3-3-----3-3-3-3-----5-5-5---5-5---5-5-5-----------------|
E|--1-1-1-1------
-----------3-3-3---3-3---3-3-3-----------------|

+1 reply
Steve-O~32 wrote on January 16 2008, 01:12 pm

ok that looks like shit, but it looked good when i wrote it...the chords go "F...C...G"

I want to post or [tab]
guest
You may want to rate the tab now too:
select rating
Please do not post tabs as comments. Select "correction" instead!