Oops, an error
Loading. Please wait.

Little Black Heart Tab

version 1
version 1

Whole song

3,898 views 3 this week
2 commentsread comments
1 2 3 4 5
accurate
x 3
add to favorites
launch autoscroll
font size
0
reset
how to read this tab
guitar tuner
Tab Pro tools
  • play this tab
  • loop segment
  • change instrument
  • show fretboard
  • metronome
×
Best way to learn
"Little Black Heart"
Autoscroll
slow
fast
+/-
esc
set tempo
stop
Contributor
Difficulty
Capo
novice
1st fret
-------------------------------------------------------------------------------
                             LITTLE BLACK HEART - The Early November
-------------------------------------------------------------------------------
Tabbed by: Ishmael Smyrnow
Email: ismyrnow@gmail.com

Tuning: Standard, Capo 1

I know there are alot of muted strings in these chords, but don't stress yourself out
landing them all. This is how I play these chords naturally. Maybe it's sloppy, but it
close enough to the record. In some places, leaving certain strings open sounds funny, 
my reason for writting it in as I did.

My guess, is that this is about 90% correct, but it's a start so that others will submit
input and updated tabs.


Verse 1: (4x) "I've got some deep scars..."

e||--3--x--0--x--0---|
B||--3--3--3--3--1---|
G||--0--2--0--0--0---|
D||--0--0--2--x--2---|
A||--2--0--3--2--0---|
E||--3--2--0--0--x---|


Chorus: (2x) "It's my life..."

e||--3-----x-----x-----x---|
B||--3-----3-----3-----3---|
G||--0-----0-----0-----2---|
D||--0-----0-----2-----0---|
A||--2-----x-----2-----x---|
E||--3-----2-----0-----2---|


Verse 2: (4x) "So now my head hurts..."

e||--3--x--0--x--0---|
B||--3--3--3--3--1---|
G||--0--2--0--0--0---|
D||--0--0--2--x--2---|
A||--2--0--3--2--0---|
E||--3--2--0--0--x---|

"My knees start to shake..."

e||--x-----x---|
B||--3-----3---|
G||--0-----2---|
D||--0-----0---|
A||--x-----x---|
E||--3-----2---|

Chorus: (2x)

Bridge: (2x) "There's one thing missing..."

e||--x-----x-----x---|
B||--3-----3-----3---|
G||--0-----2-----0---|
D||--2-----0-----2---|
A||--2-----x-----3---|
E||--0-----2-----0---|

Verse: (2x)

Chorus: (3x)

Ending:

e||--x--x--x--x--x--x---|
B||--x--x--x--x--x--x---|
G||--x--5--2--5--x--4~--|
D||--5--5--2--5--2--5~--|
A||--5--3--0--3--2--5~--|
E||--3-----x--x--0--3~--|
comments
We did not receive enough feedback on this tab! Please rate:
print report bad tab
1 2 3 4 5
2 comments total.
0 reply
bosty22 wrote on October 4 2006, 05:38 pm

good tab- heres the outro- figure out the strumming (in relation to capo)

G----5-2-5-----
D--5-5-2-5-2-5-
A--5-3-0-3-2-5-
E--3-------0-3-

0 reply
mheady wrote on March 8 2007, 12:05 am

hmm 4 stars...

I want to post or [tab]
guest
You may want to rate the tab now too:
select rating
Please do not post tabs as comments. Select "correction" instead!