Oops, an error
Loading. Please wait.

Narrow Mouth tab

version 2
version 2

Whole song

400 views 3 this week
no commentswrite comment
1 2 3 4 5
3 more votes to show rating
add to favorites
×
Save as Personal and add changes to this tab that will be seen only by you. Learn more ›
×
You can save this tab as Personal to edit and correct it or add notes. All changes will be seen only by you. Learn more »
launch autoscroll
font size
0
reset
how to read this tab
guitar tuner
edit
Autoscroll
slow
fast
+/-
esc
set tempo
stop
Tabbed by Brandon Bushnell
  Drop D Tuning: DADGBE
  Song: Narrow Mouth by The Early November

I learned most of this by ear, it works pretty well Hope you enjoy, this is an awesome song. 
The Chords are laid us in a similar ryhtem pattern but they are not detailed, but they are easy 
to figure out.                                                      


 [Intro]:                                                         
E|--------------------------------------------------------------------------------|
B|--------------------------------------------------------------------------------|
G|-------7v---5v---7v---5v----4--4/5------------7v---5v---7v---5v--4-5-4--Repeat--|
D|----------0----0----0----0----------5------------0----0----0--------------------|
A|--5-5-------------------------------------5-5-----------------------------------|
D|--------------------------------------------------------------------------------|


E|---------|
B|---------|
G|--2~~~---|
D|--2~~~---|
A|--0~~~---|
D|---------|


[Chorus]:

  "You Gotta Get Something Right"           
E|-------------------------------------------------------------------|------------------|
B|-------------------------------------------------------------------|------------------|
G|------------------55555555555---------xxxx--------------555555555--|--2~---------/5~--|
D|--00000000000-----55555555555--Repeat-xxxx--0000000000--555555555--|--2~---------/5~--|
A|--00000000000-----33333333333---------xxxx--0000000000--333333333--|--0~--------------|
D|--00000000000-------------------------xxxx--0000000000-------------|------------------|


[Verse]:                                                         
E|--------------------------------------------------------------------------------|
B|--------------------------------------------------------------------------------|
G|-------7v---5v---7v---5v----4--4/5------------7v---5v---7v---5v--4-5-4--Repeat--|
D|----------0----0----0----0----------5------------0----0----0--------------------|
A|--5-5-------------------------------------5-5-----------------------------------|
D|--------------------------------------------------------------------------------|


[Chorus]:

  "You Gotta Get Something Right"           
E|-------------------------------------------------------------------|-----------|
B|-------------------------------------------------------------------|-----------|
G|------------------55555555555---------xxxx--------------555555555--|--2~~~-----|
D|--00000000000-----55555555555--Repeat-xxxx--0000000000--555555555--|--2~~~-----|
A|--00000000000-----33333333333---------xxxx--0000000000--333333333--|--0~~~-----|
D|--00000000000-------------------------xxxx--0000000000-------------|-----------|



(Bridge): 
E|---------------------------|----------------------------------------------|
B|---------------------------|----------------------------------------------|
G|---------------------------|----------------------------------------------|
D|------7------9--------10-9-|------5------7------9--------10---9-----------|
A|---------------------------|--------------------------------------Repeat--|
D|--7-7----9-9----12-12------|--5-5----7-7----9-9----12-12---12-------------|



[Bridge 2nd part]:
E|----------------------------------|
B|--8~--10--8-------13--12----------|
G|--x---0---0-------0-------Repeat--|
D|--9~---------12~------------------|
A|--7~---------10~------------------|
D|----------------------------------|



(Bridge): Guitar building it up. 
E|-----------------|
B|-----------------|
G|--2~--4~--5~--7~-|
D|--2~--4~--5~--7~-|
A|--0~--2~--3~--5~-|
D|-----------------|


[Pre-Outro]:
E|--------------------------------------------------------|
B|--------------------------------------------------------|
G|--2-2222222222--4-44444444--5-555555555--7-7777777777---|
D|--2-2222222222--4-44444444--5-555555555--7-7777777777---|
A|--0-0000000000--2-22222222--3-333333333--5-5555555555---|
D|--------------------------------------------------------|

  (Outro):                                                                          End On
E|---------------------------------------------------------------------------------|---------|
B|---------------------------------------------------------------------------------|---------|
G|--999999999--10101010-9999999--12121212--10101010--1414141414--12121212----------|--5~~~---|
D|--XXXXXXXXX--X-X-X-X--XXXXXXX--X-X-X-X---X-X-X-X---X-X-X-X-X---X-X-X-X---Repeat--|--5~~~---|
A|--777777777--9-9-9-9--7777777--10101010--9-9-9-9---1212121212--10101010----------|--3~~~---|
D|---------------------------------------------------------------------------------|---------|



[X] = Mute String
[~] = Let Ring
[V] = Vibrato
[/] = Slide













            
            
Suggest correction
Creating personal tab
Creating personal tab
You can edit any tab online and save it as your Personal.

You can edit, replace or remove any tab part or add personal notes – all changes will be seen only by you.

Personal tabs can be accessed anytime from any device, even offline.
Learn more »
Give kudos to tab author, rate the tab!
1 2 3 4 5
comments
print report bad tab
guest
You may want to rate the tab now too:
select rating
Wanna post a correction for this tab? Suggest correction