Oops, an error
Loading. Please wait.

No Good At Saying Sorry One More Chance Tab

version 1
version 1

Whole song

4,226 views 3 this week
2 commentsread comments
1 2 3 4 5
accurate
x 3
add to favorites
launch autoscroll
font size
0
reset
how to read this tab
guitar tuner
Tab Pro tools
  • play this tab
  • loop segment
  • change instrument
  • show fretboard
  • metronome
×
Best way to learn
"No Good At Saying Sorry One More Chance"
Autoscroll
slow
fast
+/-
esc
set tempo
stop
Contributor
Difficulty
Tuning
novice
E A D G B E
-------------------------------------------------------------------------------
              No good at saying sorry - The Early November
-------------------------------------------------------------------------------
Tabbed by:Jeremiah
Email:theycallmemiami@yahoo.com

i watched a video of ace playing this on acoustic and i just look at what he was playing
played what i thought was right so here it is.. this is my first tab and i don't want
do a whole strumming pattern so i put the video here and the chords are down there so 
figure it out its not too difficult
http://youtube.com/watch?v=oM1WQDP3rBQ


Tuning:half step down- Eb Ab Db Gb Bb Eb

Intro/Verse
         Am   C
e|--0----0----0----3-----------------------------------------------------------|
B|--1----1----1----0-----------------------------------------------------------|
G|--2----2----0----0-----------------------------------------------------------|
D|--3----2----2----3-----------------------------------------------------------|
A|--3----0----3----2-----------------------------------------------------------|
E|--x----x----X----3-----------------------------------------------------------|
     Chorus
                    F
e|---3----3----3----1------------------------------------------------------------|
B|---3----3----3----1------------------------------------------------------------|
G|---0----0----0----2------------------------------------------------------------|
D|---2----0----2----3------------------------------------------------------------|
A|---3----0----0----3------------------------------------------------------------|
E|---x----2----x----1------------------------------------------------------------|
    Bridge

e|---3----3--------------------------------------------------------------------|
B|---3----3--------------------------------------------------------------------|
G|---0----0--------------------------------------------------------------------|
D|---0----0--------------------------------------------------------------------|
A|---2----3--------------------------------------------------------------------|
E|---3----1--------------------------------------------------------------------|

Heres how the song goes in order and the amount of times you play it:
Intro x2
Verse x2
Chorus x1
Intro x1
Verse x2
Chorus x1
Bridge x3
Chorus x1


| /  slide up
| \  slide down
| h  hammer-on
| p  pull-off
| ~  vibrato
| +  harmonic
| x  Mute note
===============================================================================

enjoy! rate if you like
comments
We did not receive enough feedback on this tab! Please rate:
print report bad tab
1 2 3 4 5
2 comments total.
0 reply
jd44 wrote on September 11 2007, 03:19 pm

You missed a chord... at :18 Seconds its a C chord with his pinky on the 3rd or 4th fret of the E string (I can't tell it goes by way to fast)

+1 reply
Schwabee wrote on December 11 2008, 09:56 pm

okay so third chord is
E|-3--|
B|-1--|
G|-2--|
D|-3--|
A|-0--|
E|----|

and fourth chord is
E|-3--|
B|-0--|
G|-0--|
D|-3--|
A|-x--|
E|-3--|

the chorus is
E|-3--|-3--|-0--|-1---|-1--|
B|-3--|-3--|-1--|-1---|-1--|
G|-0--|-0--|-2--|-2---|-1--|
D|-x--|-x--|-2--|-3---|-3--|
A|-3--|-2--|-0--|-3---|-3--|
E|----|----|----|-1---|-1--|

and idk about the bridge yet i never really looked at the song that long

I want to post or [tab]
guest
You may want to rate the tab now too:
select rating
Please do not post tabs as comments. Select "correction" instead!