Oops, an error
Loading. Please wait.

Rest Of My Life tab

1,216 views 1 this week
2 commentsread comments
1 2 3 4 5
2 more votes to show rating
add to favorites
×
Save as Personal and add changes to this tab that will be seen only by you. Learn more ›
×
You can save this tab as Personal to edit and correct it or add notes. All changes will be seen only by you. Learn more »
launch autoscroll
font size
0
reset
how to read this tab
guitar tuner
edit
Autoscroll
slow
fast
+/-
esc
set tempo
stop
Author
Difficulty
This is my first tab and I’m not sure if its completely right because it’s hard to hear 
individual guitars but I think this is what they play.

Tabbed by Macday000(daylenc@gmail.com)


Intro
Clean
Guitar 1
    0:00
e|---------------------------------------------------------------------------|
B|---------------------------------------------------------------------------|
G|---------------------------------------------------------------------------| x4
D|---------------------------------------------------------------------------|
A|--22222222222222224444444477777777-----------------------------------------|
E|--00000000000000002222222255555555-----------------------------------------|
    ********************************
Guitar 2
    0:12-0:23
e|---------------------------------------------------------------------------|
B|---------------------------------------------------------------------------|
G|--1h2p1—4~~---1h2p1-2~~----------------------------------------------------| x2
D|-------2-----------2-------------------------------------------------------|
A|---------------------------------------------------------------------------|
E|---------------------------------------------------------------------------|


Guitar 1 Pre-Chorus
    0:23
e|---------------|----------|
B|---------------|-----8*---|
G|---------------|----------|
D|--7-xxxxx------|----------|
A|--7-xxxxx------|--5*------|
E|--5-xxxxx------|----------|


Chorus
    0:24-0:30
Guitar 1
e|--------------------------------------------------------------------------------------|
B|--------------------------------------------------------------------------------------|
G|--666666666666-44-2222222-------------------------------------------------------------|
D|--666666666666-44-2222222-999999999---------------------------------------------------|
A|--444444444444-22-0000000-999999999---------------------------------------------------|
E|--------------------------777777777---------------------------------------------------|
Guitar 2
e|-------------------------------------------------------------------------------------|
B|-------------------------------------------------------------------------------------|
G|--13-13-13-13-13-13-13-13-13-13-13-13-13-13--11-11-9999999-16-16-16-16-16-16-16-16---|
D|---x--x--x--x--x--x--x--x--x--x--x--x--x--x---x--x-xxxxxxx—-x—-x—-x—-x—-x—-x--x—-x---|
A|--11-11-11-11-11-11-11-11-11-11-11-11-11-11---9--9-7777777-14-14-14-14-14-14-14-14---|
E|-------------------------------------------------------------------------------------|

0:30-0:36
Guitar 1
e|------------------------------------------------------------------------------------|
B|------------------------------------------------------------------------------------|
G|--66-6-6-6-6-6-44-2222222-----------------------------------------------------------|
D|--66-6-6-6-6-6-22-2222222-99999999--------------------------------------------------|
A|--44-4-4-4-4-4-22-0000000-99999999--------------------------------------------------|
E|--------------------------77777777--------------------------------------------------|
Guitar 2
e|----------------------------------------------------------|
B|----------------------------------------------------------|
G|--13\9999/13\999\-11-11-9999999-16-16-16-16-16-16-16-16---|
D|---x\xxxx/x-\xxx\--x--x-xxxxxxx—-x—-x—-x—-x—-x—-x--x—-x---|
A|--11\7777/11\777\--9—-9-7777777-14-14-14-14-14-14-14-14---|
E|----------------------------------------------------------|



0:36-0:42
Guitar 1
e|--------------------------------------------------------------------------------------|
B|--------------------------------------------------------------------------------------|
G|--666666666666-44-2222222-------------------------------------------------------------|
D|--666666666666-44-2222222-999999999---------------------------------------------------|
A|--444444444444-22-0000000-999999999---------------------------------------------------|
E|--------------------------777777777---------------------------------------------------|
Guitar 2
e|-------------------------------------------------------------------------------------|
B|-------------------------------------------------------------------------------------|
G|--99999999999911-11-999999944444444--------------------------------------------------|
D|--xxxxxxxxxxxx-x--x-xxxxxxxxxxxxxxx--------------------------------------------------|
A|--777777777777-9—-9-777777722222222—-------------------------------------------------|
E|-------------------------------------------------------------------------------------|

0:42-0:48
Guitar 1
e|--------------------------------------------------------------------------------------|
B|--------------------------------------------------------------------------------------|
G|--666666666666-44-2222222-------------------------------------------------------------|
D|--666666666666-44-2222222-999999999---------------------------------------------------|
A|--444444444444-22-0000000-999999999---------------------------------------------------|
E|--------------------------777777777---------------------------------------------------|
Guitar 2
e|------------------------------------------------------------------------------------|
B|------------------------------------------------------------------------------------|
G|--13-13-13-13-13-13-13-13-13-13-13-13-11-11-999999-444444---------------------------|
D|---x—-x—-x--x--x--x--x--x--x--x--x--x—-x--x-xxxxxx-xxxxxx---------------------------|
A|--11-11-11-11-11-11-11-11-11-11-11-11--9--9-777777-222222---------------------------|
E|------------------------------------------------------------------------------------|

Verse
0:48-1:11
Guitar 1
e|---------------------------------------------------------------------------|
B|---------------------------------------------------------------------------|
G|---------------------------------------------------------------------------| x4
D|--22222222222222224444444477777777-----------------------------------------|
A|--22222222222222224444444477777777-----------------------------------------|
E|--00000000000000002222222255555555-----------------------------------------|
    ********************************
Guitar 2
e|---------------------------------------------------------------------------|
B|---------------------------------------------------------------------------|
G|--1h2p1—4~~---1h2p1-2~~----------------------------------------------------| x2
D|-------2-----------2-------------------------------------------------------|
A|---------------------------------------------------------------------------|
E|---------------------------------------------------------------------------|


Play Pre-Chorus 1:11-1:12

Play Chorus 1:13-1:36


Bridge 1:37-2:01
Guitar 1
e|---------------------------------------------------------------------------|
B|---------------------------------------------------------------------------|
G|---------------------------------------------------------------------------| x4
D|---------------------------------------------------------------------------|
A|--4444444444444\-----------------------------------------------------------|
E|----------------0005555555555555444----------------------------------------|
    *********************************


Guitar 2 1:49-2:01
e|---------------------------------------------------------------------------|
B|------7--7---7---7----9---9---9--------------------------------------------|
G|---9----9---9---9---9----9---9---------------------------------------------| x2
D|-------------------7-7--7---7----------------------------------------------|
A|--7-7--7---7---7-----------------------------------------------------------|
E|---------------------------------------------------------------------------|


Guitar 1 2:01-2:04

e|--4~-----|
B|--4~-----|
G|--4~-44--|
D|--4~-44--|
A|--4~-22--|
E|--4~-----|
           ^ not really sure but sounds ok

Play Chorus 2:04-2:26

Ending 2:26-2:37

Guitar 1
e|--------------------------------------------------------------------------|
B|--------------------------------------------------------------------------|
G|--66-4-x--2---------------------------------------------------------------|
D|--66-4-x--2---------------------------------------------------------------|
A|--44-2-x--0---------------------------------------------------------------|
E|--------------------------------------------------------------------------|

Guitar 2
e|--------------------------------------------------------------------------|
B|----------0---------------------------------------------------------------|
G|--99-4-x--x---------------------------------------------------------------|
D|--xx-x-x--7---------------------------------------------------------------|
A|--77-2-x--x---------------------------------------------------------------|
E|----------5---------------------------------------------------------------|

            
            
Suggest correction
Creating personal tab
Creating personal tab
You can edit any tab online and save it as your Personal.

You can edit, replace or remove any tab part or add personal notes – all changes will be seen only by you.

Personal tabs can be accessed anytime from any device, even offline.
Learn more »
Give kudos to tab author, rate the tab!
1 2 3 4 5
comments
print report bad tab
2 comments total.
0 reply
Macday000 31 Jul 31, 2006 10:09 AM

now that I listen to it i think during the chorus guitar actually plays
e|------------------------------------
B|------------------------------------
G|--666666666666-44-22222222222222222-
D|--666666666666-44-22222222222222222-
A|--444444444444-22-00000000000000000-
E|------------------------------------

it does not switch to 799

0 reply
jd44 82 Sep 22, 2007 05:38 AM

Umm you can edit your tab so thats in it... just letting you know. BTW awesome tab

guest
You may want to rate the tab now too:
select rating
Wanna post a correction for this tab? Suggest correction