Oops, an error
Loading. Please wait.

Sunday Drive Tab

version 1
version 1

Whole song

Interactive

10,432 views 3 this week
4 commentsread comments
1 2 3 4 5
x 4
add to favorites
launch autoscroll
font size
0
reset
how to read this tab
guitar tuner
×
Best way to learn
"Sunday Drive"
Autoscroll
slow
fast
+/-
esc
set tempo
stop
Early November - Sunday Drive

verse
e-------------------------------------------------------------|
B-------------------------------------------------------------|
G--7-----7----------------------------------------------------|
D--7-----7----------------------------------------------------|
A--5(8)--5(8)-------------------------------------------------|
D--------5----------------------------------------------------|

chorus
e----------------------------------------------------|
B----------------------------------------------------|
G--7-----7-----7-------------------------------------|
D--7-----7-----7-------------------------------------|
A--5-(8)-7-(8)-5-------------------------------------|
D--------------5-(8)---------------------------------|

end
e------------------------------------------------------------------|
B------------------------------------------------------------------|
G--7------7--------------------------------------------------------|
D--7------7------9------9------------------------------------------|
A--5------x------9------9------------------------------------------|
D--5-(8)--7-(8)--9-(8)--11-(8)-------------------------------------|
Suggest correction
comments
print report bad tab
4 comments total. Showing first comments.
0 reply
badlarry 10 Jul 19, 2003 08:00 PM

first part
e-------------------
B-------------------
G--7-----7----------
D--7-----7----------
A--x-----x----------
D--7-----5----------

0 reply
SlyBiscut 126 Apr 30, 2004 08:00 PM

sucks

0 reply
SlyBiscut 126 Apr 30, 2004 08:00 PM

try tuning it down a half step too

guest
You may want to rate the tab now too:
select rating
Wanna post a correction for this tab? Suggest correction