Oops, an error
Loading. Please wait.

Tell Me Why tab

version 2
version 2

Whole song

2,272 views 3 this week
2 commentsread comments
1 2 3 4 5
x 4
add to favorites
×
Save as Personal and add changes to this tab that will be seen only by you. Learn more ›
×
You can save this tab as Personal to edit and correct it or add notes. All changes will be seen only by you. Learn more »
launch autoscroll
font size
0
reset
how to read this tab
guitar tuner
edit
Autoscroll
slow
fast
+/-
esc
set tempo
stop
Author
(/) Slide Up  (\) Slide Down  (h) Hammer On  (p) Pull Off  (b) Bend (r) Release (v) Vibrato
Tuning = Drop D

Important!!!!

****These are just the chords for the sections of the song as labeled, you'll need
to figure out the rhythm as needed****


Chorus: Come in @ ~31 seconds
E|-----0-----------|
B|-----3-----------|
G|--4--2--6--------|
D|--4--0--7--6-----|
A|--2--0--4--2-----|
D|-----0--4--2-----| x3

End with

E|--------0--------|
B|--------3--------|
G|--------2--------|
D|--------0--2--4--|
A|--------0--2--4--|
D|--------0--2--4--|

Verse 1: Palm Muted

E|--0-----------|
B|--3-----------|
G|--2-----------|
D|--0--4--7--2--|
A|--0--4--7--2--|
D|--0--4--7--2--| x2

End with

E|--0-----|
B|--3-----|
G|--2-----|
D|--0--2--|
A|--0--2--|
D|--0--2--|

Repeat Chorus:
E|-----0-----------|
B|-----3-----------|
G|--4--2--6--------|
D|--4--0--7--6-----|
A|--2--0--4--2-----|
D|-----0--4--2-----| x3

End with

E|--------0--------|
B|--------3--------|
G|--------2--------|
D|--------0--2--4--|
A|--------0--2--4--|
D|--------0--2--4--| x2 this time

Bridge:

E|--------------------|
B|--------------------|
G|--16--14--12--7--9--|
D|--------------7--9--|
A|--14--12--10--5--7--|
D|--------------------| x4

End with

E|--0--
B|--3--
G|--2--
D|--0--
A|--0--
D|--0--

Back to chorus:

E|-----0-----------|
B|-----3-----------|
G|--4--2--6--------|
D|--4--0--7--6-----|
A|--2--0--4--2-----|
D|-----0--4--2-----| x2

E|---------------|
B|---------------|
G|--4--7--11--9--|
D|--4--7--11--9--|
A|--2--5--9---7--|
D|---------------| x2


E|-----0--------|
B|-----3--------|
G|--4--2--------|
D|--4--0--4--2--|
A|--2--0--4--2--|
D|-----0--4--2--| x1

End on

E|-----
B|-----
G|--4--
D|--4--
A|--2--
D|-----
Suggest correction
Creating personal tab
Creating personal tab
You can edit any tab online and save it as your Personal.

You can edit, replace or remove any tab part or add personal notes – all changes will be seen only by you.

Personal tabs can be accessed anytime from any device, even offline.
Learn more »
comments
print report bad tab
2 comments total.
0 reply
SteveyRem 57 Oct 08, 2013 11:36 AM

there is a slight mistake with the octave chords in the break as i think its

E|--------------------|
B|--------------------|
G|--16--14--11--7--9--|
D|--------------7--9--|
A|--14--12--9---5--7--|
D|--------------------|

0 reply
JammesT 10 May 09, 2017 02:26 PM

To make it easier you can play the chord written as 622 as 1222 (top four strings not just top 3)

guest
You may want to rate the tab now too:
select rating
Wanna post a correction for this tab? Suggest correction