Oops, an error
Loading. Please wait.

Death Of A Dream Tab

version 1
version 1

Intro

Whole song

544 views 45 this week
no commentswrite comment
1 2 3 4 5
x 4
add to favorites
launch autoscroll
font size
0
reset
how to read this tab
guitar tuner
Autoscroll
slow
fast
+/-
esc
set tempo
stop
Help us to improve Ultimate-Guitar.com Take our survey!
×
Author
Difficulty
Capo
novice
2nd fret
Capo on 2nd fret. 

Link to original: https://www.youtube.com/watch?v=4yS6tBy7GA8

[Intro]

e|-------3-----------------------------3-------------------------------------------------------|
B|-------1-----1-----1-----1-----------1-------------1---------1-------------------------------|
G|-------------0-----0-----0---------------0---------0---------0---------0---0h2p0-------------|
D|-------------2---------------------------0-------------0h2-------------------------0---0h2---|
A|--0-------------------0--------0h2-------2---2h3---------------------------------------------|
E|-----------------------------------------------------------------0h1-------------------------|


e|-------3--3--------------------------3-------------------------------------------------------|
B|-------1-----1-----1-----1-----------1-------------1---------1-------------------------------|
G|-------------0-----0-----0---------------0---------0---------0---------0---0h2p0-------------|
D|-------------2---------------------------0-------------0h2-------------------------0---0h2---|
A|--0-------------------0--------0h2-------2---2h3---------------------------------------------|
E|-----------------------------------------------------------------0h1-------------------------|



| h  - Hammer on
| p  - Pull off
Suggest correction
comments
print report bad tab
guest
You may want to rate the tab now too:
select rating
Wanna post a correction for this tab? Suggest correction