Oops, an error
Loading. Please wait.

Frankenstein tab

version 1
version 1

Whole song

Interactive

25,857 views 9 this week
7 commentsread comments
1 2 3 4 5
x 6
add to favorites
×
Save as Personal and add changes to this tab that will be seen only by you. Learn more ›
×
You can save this tab as Personal to edit and correct it or add notes. All changes will be seen only by you. Learn more »
launch autoscroll
font size
0
reset
how to read this tab
guitar tuner
backing track
0:00
0:00
edit
Autoscroll
slow
fast
+/-
esc
set tempo
stop
Song--------Frankenstein
Artist------Edgar Winter Groupe
Album-------They Only Come Out At Night
Tabbed By---Casey Nave (stangle12@yahoo.com)

Riff 1

-----------------------
-----------------------
----------3------------
5555-3-55-3--555-3-5---
5555-3-55-1--555-3-5---
3333-1-33----333-3-5---

Riff 2

-----------------------------------
-------------------------3---------
--------3---5-3---3--5-3--5-3------
----3-5---5-----5-------------5-3-5
3-5--------------------------------
-----------------------------------

Riff 3

--------------------
---------3h45595----
---3h455-3h45585----
55-3h455-1h23363----
55-1h233------------
33------------------

Riff 4

---------------------------3-----------
---------4---6-4----4-6-4----6-4-------
----3-5----5-----5---------------5-3-5-
3-5------------------------------------
---------------------------------------
---------------------------------------

Riff 5

---------------------
---------------------
3333-2320---2222-212-
--------------------4
---------------------
---------------------

Riff 6
Part 1 x1          Part 2 x2
---------------\----------------
---------------\----------------
3-3-33-3-33-3--\5-5-55-5-55-5---
3-3-33-3-33-3--\5-5-55-5-55-5---
1-1-11-1-11-1--\3-3-33-3-33-3---
---------------\----------------

Riff 7

------------
------------
---55-77-5-7
77-55-77-5-7
77-33-55-3-5
55----------

Riff 8

---------
---------
99-7-9-9-
99-7-9-7-
77-5-7-5-
---------

Riff 9

--------------------------
--------------------------
--------------------------
--------------------2345--
----1233--------1233----5-
3-33-----012-333---------3

These next two riffs are played by the bass, but you can play them with a guitar also.

Bass riff 1

-----------------------------------------
-----------------------------------------
------------------------- 3---5----------
---------------------3-53---5---8-7-10-12
----------1---3-1-53---------------------
1-333-1-3---3----------------------------

Bass riff 2

--------------------------------
--------------------------------
----------------------3---------
5-3-5---*drums*-5-3-5----*drums*
--------------------------------
------3-------------------------


Riff 10


It doesent really matter if you get the right noter here.  Just play it fast.

12h11h10h9h8h7h6h5h4h3h2h-------------------------
-------------------------12h11h10h9h8h7h6h5h4h3h2h
--------------------------------------------------
--------------------------------------------------
--------------------------------------------------
--------------------------------------------------
Just mess around with stuff like that and it sounds right.

Riff 11

I dont think this is played by a guitar, but this sounds ok.

(palm muted)

---------------------------------------------------
---------------------------------------------------
-12-12-11-11-10-10-9-9-8-8-7-7-6-6-5-5-4-4-3-3-2-2-
-12-12-11-11-10-10-9-9-8-8-7-7-6-6-5-5-4-4-3-3-2-2-
-10-10-9--9--8--8--7-7-6-6-5-5-4-4-3-3-2-2-1-1-0-0-
---------------------------------------------------


Riff 12

----------------
----------------
3333-5555-7777--
3333-5555-7777--
1111-3333-5555--
----------------

Order:
Riff 1 x2
Riff 2 x1
Riff 3 x1
Riff 2 x1 AND Riff 6 x1
Riff 4 x1 AND Riff 6 x1
Riff 5 x1
Riff 1 x2
Riff 7 x8
Riff 8 x4
Riff 9 x6
Bass riff 1 x2
Bass riff 2 x2
Drum Solo
Riff 10 x as many times needed
Riff 11 x1
Riff 1 x2
Riff 2 x2
Riff 12 x2


            
            
Suggest correction
Creating personal tab
Creating personal tab
You can edit any tab online and save it as your Personal.

You can edit, replace or remove any tab part or add personal notes – all changes will be seen only by you.

Personal tabs can be accessed anytime from any device, even offline.
Learn more »
comments
print report bad tab
7 comments total. Showing first comments.
0 reply
spiderman86 60 Sep 23, 2002 08:00 PM

great tab for a great song keep tabbin man!!!

0 reply
RockMarshall12 10 Nov 20, 2003 07:00 PM

rock and rolll

0 reply
farcry 110 Aug 03, 2004 08:00 PM

awsome song, one thing, i play the intro a little different

-----------------------
-----------------------
----------3------------
5555-3-55-3--555-3-5---
5555-3-55-1--555-3-5---
3333-1-33----333-3-5---

I play

-----------------------
-----------------------
----------3------------
5555-3-55-3--555-3-5---
5555-3-55-1--555-3-5---
3333-1-33----333-1-3---

i think it sounds a little better, but a bitchin song none the less, does anyone know if it was originally done in powerchords

guest
Wanna post a correction for this tab? Suggest correction