Oops, an error
Loading. Please wait.

Turkish Delights Of The Devil Tab

328 views 1 this week
no commentswrite comment
1 2 3 4 5
3 more votes to show rating
add to favorites
launch autoscroll
font size
0
reset
how to read this tab
guitar tuner
×
Best way to learn
"Turkish Delights Of The Devil"
Autoscroll
slow
fast
+/-
esc
set tempo
stop
intro:

aftter drums: both guitars

|----------------------------------------------|
|----------------------------------------------|
|----------------------------------------------| times 6
|-5-5-5-5-888888-5-5-5-5-222222-5-5-5-5-222222-|
|-5-5-5-5-888888-5-5-5-5-222222-5-5-5-5-222222-|
|-3-3-3-3-666666-3-3-3-3-000000-3-3-3-3-000000-|

bridge: both guitars

|--------|
|--------|
|--------|
|9-9-9-9-|
|9-9-9-9-|
|7-7-7-7-|

verse: guitar 2 play as much as needed

|-----------------|
|-----------------|
|-----------------|
|-5-5-4-4-2-2-5-2-|
|-5-5-4-4-2-2-5-2-|
|-3-3-2-2-0-0-3-0-|

verse: guitar 1 play as much as needed

|-----------------|
|-8-8-7-7-5-5-8-5-|
|-10109-9-7-7-107-|bend this string on rythm
|-----------------|
|-----------------|
|-----------------|

dont listen to me! bit (from now im im going to reffer to this as the chorous)

guitar 1:

|--------------------|
|-3-3-3-3---3-555----|
|-3-2-3-3-3-3-555----|
|---------2----------|
|--------------------|
|--------------------|

guitar 2:

|-------------------|
|-------------------|
|-3-2-3-3-3-555-----|
|--------2------222-|
|-------------------|
|-------------------|

bridge 2: both guitars

|-------------------|
|-------------------|
|-------------------|
|-2-3-4-5-5-5-5-8-2-|
|-2-3-4-5-5-5-5-8-2-|
|-0-1-2-3-3-3-3-6-0-|

verse

solo: guitar 2 plays verse in background

|-------------------------------------------------------------|
|-------------------------------------------------------------|
|--------------------------------------9-99999-------9-999999-|
|-5-5-4-4-2-2-5-1-5-5-/8-5-5-2-5-5-5-/8--------5-5-/8---------|
|-------------------------------------------------------------|
|-------------------------------------------------------------|

chorous

bridge 2

verse

some mental bit that i can no way figure out

verse
Suggest correction
Give kudos to tab author, rate the tab!
1 2 3 4 5
comments
print report bad tab
guest
You may want to rate the tab now too:
select rating
Wanna post a correction for this tab? Suggest correction