Oops, an error
Loading. Please wait.

Heaven Must Have Sent You Bass Tab

1,643 views 3 this week
no commentswrite comment
1 2 3 4 5
excellent!
x 3
add to favorites
launch autoscroll
font size
0
reset
guitar tuner
Autoscroll
slow
fast
+/-
esc
set tempo
stop
Help us to improve Ultimate-Guitar.com Take our survey!
×
Contributor
Difficulty
bass50611 7,150
intermediate
Heaven Must Have Sent You
Song writers: Brian Holland, Lamont Dozior, Edward Holland
Original Artistes: The Elgins
Original Bassist: James Jamerson (with The Funk Brothers)

Tabbed by bass50611
Any comments e-mail me at goldenoldie.benson@sky.com

Intro & Verse:
G-------------------------------------------------------------------|
D---------------------------------------------4--5-55--5-------5----|
A------------------------------4--5-55--55--55-----------77--8---7--|
E--8-88--88--88-7--5-55--55--55-------------------------------------|

Thats really the basic song and can be played all the way through.
However just to make it interesting listed below are alternatives
that J.J. puts in to make this a great song.

Alternative 1:
G-------------------------------------------------------------------|
D-------------------------------------------------------------------|
A--3-33--33--33--2-0-00--00--00--4-5-55--55--55---------------------|
E-----------------------------------------------2-3-33-3--00-11--3--|

Alternative 2
G---------------------------------------------------------------|
D---------------------------------------------4--5555-------5---|
A------------------------------4--5-55--55--55--------77--8-----|
E--8-88--88--88-7--5-55--55--55---------------------------------|

Alternative 3:
G------------------------------------------------|
D------------------------------4--5555-------5---|
A--------------------4--5555555--------77--8-----|
E--8888888-7--5555555----------------------------|
comments
We did not receive enough feedback on this tab! Please rate:
print report bad tab
1 2 3 4 5
I want to post or [tab]
guest
You may want to rate the tab now too:
select rating
Please do not post tabs as comments. Select "correction" instead!