Oops, an error
Loading. Please wait.

No Plans For Tomorrow Bass Tab

1,099 views 3 this week
no commentswrite comment
1 2 3 4 5
x 4
add to favorites
launch autoscroll
font size
0
reset
guitar tuner
Autoscroll
slow
fast
+/-
esc
set tempo
stop
Help us to improve Ultimate-Guitar.com Take our survey!
×
Author
No Plans For Tomorrow
The Emotions
Bass Tab
Bass: Verdine White

108BPM, 4/4, Db

[Intro]

   Q.  H    S S   Q  S S Q.   E S S   Q.  Q.  S S S S   E.  S S  S E. S S S E S S
G|--------------|-------------------|-------------8---|---------------------------|
D|-----1--------|----1-2-3----3-----|-----------8---8-|-10------------------------|
A|-4--------1-2-|-3-------------2-3-|-4---6-----------|-------10-9-8----------2-3-|
E|--------------|-------------------|-----------------|-----8---------0-3-2-1-----|

   Q.  H    S S   E Q  Q  E E S S   Q.  H    S T T   E Q  Q  Q.
G|--------------|-----------------|----------3-3-3-|-5-----------|
D|-----1--------|-----------------|----------------|------3--3---|
A|-4--------1-2-|-3-----------2-3-|-4---6----------|---3---------|
E|--------------|---0--1--x-4-----|----------------|-------------|


[Verse]

   Q  Q  H      E E. E S Q.  S S   Q  Q  Q.  E   E E. E S Q  S S S S
G|------------|------------------|-------------|---------------------|
D|------------|------------------|-------------|---------------------|
A|-4--4--4----|-3-3--3---3---2-3-|-4--4--4---4-|-3-3--3---3----1-3-1-|
E|------------|--------3---------|-------------|--------3----3-------|

   E  Q  S S E  Q  S S   E E. E S Q  E  E   E E. E.  Q  Q    E E. E S Q  E S S
G|---------------------|------------------|----------------|-------------------|
D|-------0-1-2-h2--2-2-|-3-3--3-1-3-------|------10--------|-------------------|
A|-3-h3----------------|------------------|----------------|-4-4--4---4----2-3-|
E|---------------------|-------------1-h3-|-4-4------4--4--|--------4----4-----|


[Chorus]

   Q.  H    S S   E. S S S Q.  E S S   Q.  H    S T T   E Q  Q  S S E E
G|--------------|--------------------|----------3-3-3-|-5---------1-----|
D|-----1--------|--------------------|----------------|------3--3---3---|
A|-4--------1-2-|-3--------------2-3-|-4---6----------|---3-----------3-|
E|--------------|----0-3-2-1---4-----|----------------|-----------------|

   Q.  Q.   S S S S   E.  S S  S E. S S S E S S   Q.  Q.  S S S S   E. S S S Q.  Q
G|--------------8---|---------------------------|-----------------|-------------------|
D|------------8---8-|-10------------------------|-----1-----------|-------------------|
A|-4---6------------|-------10-9-8----------2-3-|-4---------0-1-2-|-3------------11\--|
E|------------------|-----8---------0-3-2-1-----|-----------------|----0-3-0-1--------|


[Verse]

   Q  Q  H      E E. E S H      Q  Q  Q  S S E   E E. E S Q  E S S
G|------------|---------------|----------------|-------------------|
D|------------|---------------|----------------|-------------------|
A|-4--4--4----|-3-3--3---3----|-4--4--4------4-|-3-3--3---3----1-2-|
E|------------|--------3------|------------4---|--------x----3-----|

   E  Q  S S E Q  E     E E. E S E  Q  E   E E. E  S Q.    S S   E E. E S E  Q  E
G|-------7-8-9--------|------------------|---------------------|------8-9-10------|
D|--------------------|------------------|------11---10--------|------------------|
A|-3-h3---------------|------------------|---------x-----------|------------------|
E|-------------8--11\-|-1-1--1-0-1-h1--3-|-4-4-------------7h8h|=9-9---------9--4-|


[Chorus]

   Q.  Q.  S S S S   E. S S S Q  Q  E   Q.  Q.  S S S S   E.  S S  S E. S S S E S S
G|-----------------|------------------|-------------8---|---------------------------|
D|-----1-----------|------------------|-----------8---8-|-10------------------------|
A|-4---------0-1-2-|-3----------------|-4---6-----------|-------10-9-8----------2-3-|
E|-----------------|----0-3-2-1--1--4-|-----------------|-----8---------0-3-2-1-----|

   Q.  H    S T T   E Q  Q  E  E  E   Q.  Q.  S S S S   E S S E E  H
G|----------3-3-3-|-5---------------|-----------------|-----------------|
D|----------------|------3----------|-----1-----------|-----------------|
A|-4---6----------|---3-----15s11s6-|-4---------0-1-2-|-3---------------|
E|----------------|-----------------|-----------------|---0-0-0-1-h1----|


[Bridge]

   Q  Q  Q  Q    Q  Q  Q  Q    Q  E. S Q  Q    Q  Q  Q  Q
G|-------------|-------------|-------4-------|-------------|
D|-------------|-------------|---------------|-------------|
A|-2--2--2--2--|-3--3--3--3--|-2--2----2--2--|-3--3--3--3--|
E|-------------|-------------|---------------|-------------|

   Q  Q  Q  Q    E E E E E E E E
G|-------------|-----------------|
D|-------------|-----------------|
A|-2--2--2--2--|-3-3-3-3-3-3-3-3-|
E|-------------|-----------------|

   Q  Q  Q  E S S   E E. E S Q   Q     Q  Q  Q  E S S   E E. E S Q  Q
G|----------------|--------------10--|----------------|------------------|
D|------------1-2-|-3-3--------------|------------1-2-|-3-3--3-3----15\--|
A|-1--1--1--1-----|------3-3---------|-1--1--1--1-----|------------------|
E|----------------|----------1/------|----------------|----------1-------|

   Q  Q  Q  Q    Q.  S S Q.  S S   Q.  S S Q.  E
G|-------------|-----------------|-------------5-|
D|-------------|-----0-1-2---x-4-|-5---x-7-8-----|
A|-1--1--1--1--|-3---------------|---------------|
E|-------------|-----------------|---------------|


[Chorus]

   Q.  Q.  S S S S   E S S E Q.  S S E   Q.  Q.  S S S S   E. S S S E. S S S E S S
G|-----------------|-------------------|-------------8-6-|-5-----------------------|
D|-----1-----------|-------------------|-----------8-----|------5-4-3--------------|
A|-4---------0-1-2-|-3-1-----------2-3-|-4---6-----------|----3----------------2-3-|
E|-----------------|-----3-2-1---4-----|-----------------|-------------0-3-2-1-----|

   Q.  H    S T T   E Q  Q.  E S S   Q.  Q.  E S S   Q.  Q.  Q
G|----------3-3-3-|-5--------------|---------------|------------|
D|----------------|------3---3-----|-----1---------|-----3------|
A|-4---6----------|---3--------2-3-|-4---------1-2-|-3----------|
E|----------------|----------------|---------------|------------|


[Verse]

   Q  Q  Q.  E   E E. E S Q  S S E   Q  Q  Q.  E   E E. E S Q.  S S
G|-------------|------5------------|-------------|------5-----------|
D|-------------|-------------------|-------------|------------------|
A|-4--4--4---4-|-3-3------3----2-3-|-4--4--4---4-|-3-3------3---1-2-|
E|-------------|--------3----------|-------------|--------3---------|

   E  Q  S S E  Q  S S   E E. E S E Q  E   E E. E.  E  Q  S S   E E. E S E  E. E.
G|---------------------|-----------------|--------------------|------8-9-10-------|
D|-------0-1-2-h2--2-2-|-3---------------|------11--10--------|-------------------|
A|-3-h3----------------|-----------------|--------------------|-------------------|
E|---------------------|---1--1-x-1-1--3-|-4-4---------4--7h8h|=9-9---------9--4--|


[Chorus/Ending]

   Q.  Q.  Q    Q.  Q.  S S S S   Q.  Q.  S S S S   E. S S S E. S S S E S S
G|------------|-----------------|-------------8-6-|-5-----------------------|
D|-----1------|-----3-----------|-----------8-----|------5-4-3--------------|
A|-4----------|-3---------1-2-3-|-4---6-----------|----3----------------2-3-|
E|------------|-----------------|-----------------|-------------0-3-2-1-----|

   Q.  H    S T T   E Q  Q.  S E S   Q.  Q.  S S E   E S S E Q  E. S E
G|----------3-3-3-|-5--------------|---------------|-------------------|
D|----------------|------3---5-3-3-|-----1---------|-------------------|
A|-4---6----------|---3------------|-4---------1-2-|-3-1-----------2-3-|
E|----------------|----------------|---------------|-----3-2-1--1------|

   Q.  Q.  S S S S   E S S E S S E E E E   Q.  Q.  S S S S   E Q  Q  E E E
G|-----------------|---------------------|-----------------|---------------|
D|-----1-----------|---------------------|-----1-----------|---------------|
A|-4---------0-1-2-|-3---------------2-3-|-4---------0-1-2-|-3---------2-3-|
E|-----------------|---0-0-0-1-1-1-4-----|-----------------|---0--1--4-----|

   Q.  Q.  S S S S   E Q  Q  E E S S   Q.  H    S T T   E Q  E. S E E E
G|-----------------|-----------------|----------3-3-3-|-5---------------|
D|-----1-----------|-----------------|----------------|------3--3-3-5---|
A|-4---------0-1-2-|-3-----------2-3-|-4---6----------|---3-----------3-|
E|-----------------|---0--1--2-4-----|----------------|-----------------|

   Q.  Q.  S S S S   E Q  E. S S S E E   Q.  Q.  S S S S   E. S S S E. S S S E S S
G|-----------------|-------------------|-------------8-6-|-5-----------------------|
D|-----1-----------|-------------------|-----------8-----|------5-4-3--------------|
A|-4---------1-2-2-|-3---------------2-|-4---6-----------|----3----------------2-3-|
E|-----------------|---0--1--1-1-1-4---|-----------------|-------------0-3-2-1-----|

   Q.  Q.  S S E   E Q  E E E E E   Q.  Q.  Q    Q.  Q.  S S E
G|---------------|----------------|------------|---------------|
D|-----1---------|----------------|-----1------|-----3---------|
A|-4---------1-2-|-3----------1-3-|-4----------|-3---------2-3-|
E|---------------|---0--1-1-4-----|------------|---------------|

   Q.  H    S T T   E Q  E. S E E S S   Q.  Q.  S S E   E E E Q  E E E
G|----------3-3-3-|-5-----------------|---------------|----------------|
D|----------------|------3--3-5-3-----|-----1---------|----------------|
A|-4---6----------|---3-----------2-3-|-4---------1-2-|-3----------2-3-|
E|----------------|-------------------|---------------|---0-0-1--4-----|

   Q.  Q.  S S E   E Q  S S E E E E
G|---------------|------------------*|
D|-----1---------|------------------*|
A|-4---------1-2-|-3------------2-3-*|
E|---------------|---0--1-1-1-4-----*|

Legend
------
W - Whole Note (8 "-"s)
H - Half Note (4 "-"s)
H. - Half Dotted (6 "-"s)
Q - Quarter Note (2 "-"s)
Q. - Quarter Dotted (3 "-"s)
E - Eighth Note (1 "-")
E. - Eighth Dotted (2 "-"s)
S - Sixteenth Notes (1 "-")
T - Thirty-Second Notes (1 "-")
Suggest correction
comments
print report bad tab
guest
You may want to rate the tab now too:
select rating
Wanna post a correction for this tab? Suggest correction