Oops, an error
Loading. Please wait.

Heaven Raining Bullets Tab

185 views 1 this week
2 commentsread comments
1 2 3 4 5
please rate
add to favorites
launch autoscroll
font size
0
reset
how to read this tab
guitar tuner
Autoscroll
slow
fast
+/-
esc
set tempo
stop
Help us to improve Ultimate-Guitar.com Take our survey!
×
Author
You can download the song for free (and legally) at www.empirehideous.com
I think this tab is pretty close, since it's such a simple song, but there may be a few mistakes
here and there.  I do have all of the parts, though.


Intro
--2--2--2-2-2-2--2-2-----------7--7--7-7-7--5--5-5--7--7-7-5----|
----------------------3--3-3------------------------------------|
----------------------------------------------------------------|
----------------------------------------------------------------|
----------------------------------------------------------------|
----------------------------------------------------------------|

Riff A
--2--2-3--3—2h3p2p0-2--2-3--3—2h3p2p0-2--2-2--2-2-2-3-0-0-2-0-0-3-0--------|
---------------------------------------------------------------------------|
---------------------------------------------------------------------------|
---------------------------------------------------------------------------|
---------------------------------------------------------------------------|
---------------------------------------------------------------------------|

--2--2-3--3—2h3p2p0-2--2-3--3—2h3p2p0-2—-2-2-2-2-2-3-5-0-7-0-0-5-0-5:------|
---------------------------------------------------------------------------|
---------------------------------------------------------------------------|
---------------------------------------------------------------------------|
---------------------------------------------------------------------------|
---------------------------------------------------------------------------|

Verse
----------------------------5--/9---10-7----7\--------------|
---10\-2--3-0---3/10----------------------------------------|
------------------------------------------------------------|
------------------------------------------------------------|
------------------------------------------------------------|
 -----------------------------------------------------------|

Chorus
---------------------------------------------------------------------|
---------------------------------------------------------------------|
---------------------------------------------------------------------|
-5--5-5-5-5--4---2--2-2-2-2--7--9--9-9-9-9-9-9--7-7-7--9-9-9--7-7----|
-5--5-5-5-5--4-0-2--2-2-2-2--7--9--9-9-9-9-9-9--7-7-7--9-9-9--7-7----|
-3--3-3-3-3--2-0-0--0-0-0-0--5--7--7-7-7-7-7-7--5-5-5--7-7-7--5-5----|
    . . . .  . .    . . . .        . . . . . .    . .    . .    .

Riff B
--5--5-5-5-5-5-5-5-5--5--5-5--9--9-9-9-9-9--7--7-7--9--9-9-7---------|
--7--7-7-7-7-7-7-7-7--7--7-7-10-1010101010--7--7-7-10-1010-7---------|
---------------------------------------------------------------------|
---------------------------------------------------------------------|
---------------------------------------------------------------------|
---------------------------------------------------------------------|

--5--5-5-5-5-5--5--5-5--12--12-12--9--9-9-9-9-9--7--7-7--9--9-9-7---|
--7--7-7-7-7-7--7--7-7--12--12-12-10-1010101010--7--7-7-10-1010-7---|
--------------------------------------------------------------------|
--------------------------------------------------------------------|
--------------------------------------------------------------------|
--------------------------------------------------------------------|

Riff C
--2--2-3--3—2h3p2p0-2--2-3--3—2h3p2p0-2--2-2--2-2-2-3-0-0-2-0-0-3-0-2------|
---------------------------------------------------------------------------|
---------------------------------------------------------------------------|
---------------------------------------------------------------------------|
---------------------------------------------------------------------------|
---------------------------------------------------------------------------|

--2--2-3--3—2h3p2p0-2--2-3--3—2h3p2p0-2—-2-2-2-2-2-3-0-0-5-0-0-7-0-5:------|
---------------------------------------------------------------------------|
---------------------------------------------------------------------------|
---------------------------------------------------------------------------|
---------------------------------------------------------------------------|
---------------------------------------------------------------------------|

Verse 2
----------------------------5--/9---10-7----7\--------------|
---10\-2--3-2--0---3/10-------------------------------------|
------------------------------------------------------------|
------------------------------------------------------------|
------------------------------------------------------------|
------------------------------------------------------------|

 Riff E
|--2--2--2-2-2-2-3-3-3-2-2-2-0---2--2--2-2-2-2-3-3-3-2-2-2-0----|
|--3--3--3-3-3-3-3-3-3-3-3-3-0---3--3--3-3-3-3-3-3-3-3-3-3-0----|
|---------------------------------------------------------------|
|---------------------------------------------------------------|
|---------------------------------------------------------------|
|---------------------------------------------------------------|
|                                                               |
|--5--5--5-5-5-5--5-5-5-5--5-5---9--9-9-9-9-9-7--7-7-9--9-9-7---|
|---------------------------------------------------------------|
|---------------------------------------------------------------|
|---------------------------------------------------------------|
|---------------------------------------------------------------|
|---------------------------------------------------------------|

|--2--2--2-2-2-2-3-3-3-2-2-2-0---2--2--2-2-2-2-3-3-3-2-2-2-0----|
|--3--3--3-3-3-3-3-3-3-3-3-3-0---3--3--3-3-3-3-3-3-3-3-3-3-0----|
|---------------------------------------------------------------|
|---------------------------------------------------------------|
|---------------------------------------------------------------|
|---------------------------------------------------------------|
|                                                               |
|--5--5-5-5-5-5-5--5-5--12--12-12--9--9-9-9-9-9-7--7-7-9--9-7---|
|---------------------------------------------------------------|
|---------------------------------------------------------------|
|---------------------------------------------------------------|
|---------------------------------------------------------------|
|---------------------------------------------------------------|

Riff F
--2--2-3--3—2h3p2p0-2--2-3--3—2h3p2p0-2--2-2--2-2-2-3-5-0-2-0-0-3-0--------|
---------------------------------------------------------------------------|
---------------------------------------------------------------------------|
---------------------------------------------------------------------------|
---------------------------------------------------------------------------|
---------------------------------------------------------------------------|

--2--2-3--3—2h3p2p0-2--2-3--3—2h3p2p0-2—-2-2-2-2-2-3-5-0-7-0-0-5-0-5:------|
---------------------------------------------------------------------------|
---------------------------------------------------------------------------|
---------------------------------------------------------------------------|
---------------------------------------------------------------------------|
---------------------------------------------------------------------------|
Verse 3
-5--/9---10-7----7\-----------------------------------------|
--------------------------10\-2--3-0---3/10-----------------|
------------------------------------------------------------|
------------------------------------------------------------|
------------------------------------------------------------|
------------------------------------------------------------|


End Chorus
|---------------------------------------------------------------------|
|---------------------------------------------------------------------|
|---------------------------------------------------------------------|
|-5--5-5-5-5--4---2--2-2-2-2--7--9--9-9-9-9-9-9--7-7-7--9-9-9--7-7----|
|-5--5-5-5-5--4-0-2--2-2-2-2--7--9--9-9-9-9-9-9--7-7-7--9-9-9--7-7----|
|-3--3-3-3-3--2-0-0--0-0-0-0--5--7--7-7-7-7-7-7--5-5-5--7-7-7--5-5----|
|    . . . .  . .    . . . .        . . . . . .    . .    . .    .    |
|                                                                     |
|-3-------3---2---0-------0-------------------------------------------|
|---------------------0----------3-----3-----3---2------0------0------|
|---------------------------------------------------------------------|
|---------------------------------------------------------------------|
|---------------------------------------------------------------------|
|---------------------------------------------------------------------|

|---------------------------------------------------------------------|
|---------------------------------------------------------------------|
|---------------------------------------------------------------------|
|-5--5-5-5-5--4---2--2-2-2-2--7--9--9-9-9-9-9-9--7-7-7--9-9-9--7-7----|
|-5--5-5-5-5--4-0-2--2-2-2-2--7--9--9-9-9-9-9-9--7-7-7--9-9-9--7-7----|
|-3--3-3-3-3--2-0-0--0-0-0-0--5--7--7-7-7-7-7-7--5-5-5--7-7-7--5-5----|
|    . . . .  . .    . . . .        . . . . . .    . .    . .    .    |
|                                                                     |
|-3-------3---2---0-------0------2-----2----2----3------2-------------|
|---------------------0----------------------------------------0------|
|---------------------------------------------------------------------|
|---------------------------------------------------------------------|
|---------------------------------------------------------------------|
|---------------------------------------------------------------------|

Outro
|-3-------3---2---0-------0-------------------------------------------|
|---------------------0----------3-----3-----3---2------0------0------|
|---------------------------------------------------------------------|
|---------------------------------------------------------------------|
|---------------------------------------------------------------------|
|---------------------------------------------------------------------|

|-3-------3---2---0-------0------2-----2----2----3------2-------------|
|---------------------0----------------------------------------0------|
|---------------------------------------------------------------------|
|---------------------------------------------------------------------|
|---------------------------------------------------------------------|
|---------------------------------------------------------------------|

Order
Intro x2
Riff A
Verse 1
Riff A
Chorus x2
Riff B
Riff C
Verse 2
Riff C
Chorus x4
Riff E
Riff F
Verse 3
Riff F
End Chorus x2
Outro
End Chorus x4(fades on 4th)
Suggest correction
Give kudos to tab author, rate the tab!
1 2 3 4 5
comments
print report bad tab
2 comments total.
-1 reply
1-ignition-2 205 wrote on April 29 2008, 11:36 am

sucks like ur mam

0 reply
Death_To_Emo 199 wrote on April 30 2008, 06:55 am

That guy above just hates it cus his tab sux and he won't admit it

guest
You may want to rate the tab now too:
select rating
Please do not post tabs as comments. Select "correction" instead!