Oops, an error
Loading. Please wait.

40 Days And 40 Nights Bass Tab

version 1
version 1

Whole song

Interactive

2,511 views 1 this week
2 commentsread comments
1 2 3 4 5
x 4
add to favorites
launch autoscroll
font size
0
reset
guitar tuner
Autoscroll
slow
fast
+/-
esc
set tempo
stop
Help us to improve Ultimate-Guitar.com Take our survey!
×
----------------------------------------------------------------------------

		    40 Days And 40 Nights - The Enemy

----------------------------------------------------------------------------

Tabbed By : benny boy
e-mail: sexy_ben01@hotmail.co.uk

Tuning:Standard

This is how i play it in my band and it sounds perfect!

Intro/Verse

G|-------66--44-------66--44-----|----------------------------------|
D|--------------66-----------66--|-------77--55--------77--55-------|
A|---44-------------44-----------|--------------77-------------77---|
E|-------------------------------|----55------------55--------------|

G|-------------------------------|-------66--44-------66--44--------|
D|-------44--22-------44--22-----|--------------66-----------66-----|
A|--------------44-----------44--|---44-------------44--------------|
E|---22-------------22-----------|----------------------------------|


Pre-chorus

G|---------------------------------------------------------------------|
D|---------------------------------------------------------------------|
A|---------------------------------------------------------------------|
E|---7-8-9--7-8-9--7-8-9--9--7---0-1-2--0-1-2--0-1-2--2-0--------------| x 2

Chorus

G|---------------------------------------------------------------------|
D|---------------------------------------------------------------------|
A|--4-4-4-4-4-4-4-4-4-4-4-4-4-4-4-4------------------------------------|
E|-----------------------------------5-5-5-5-5-5-5-5-5-5-5-5-5-5-5-5---| x 4


and thats all you need to know the structures easy to work out yourself. and during the 
you play excactly the same as the verse.

email me if you think there is any changes in it!

| /  slide up
| \  slide down
| h  hammer-on
| p  pull-off
| ~  vibrato
| +  harmonic
| x  Mute note
===============================================================================
Suggest correction
comments
print report bad tab
2 comments total.
0 reply
littledan23 52 Jun 05, 2008 01:26 PM

this tab is amzingly correct
but what id say is when he sings
"whats he gonna feed her" in the chorus
play a few 7's on the E string until the next line then continue as the tab says
:):)

0 reply
littledan23 52 Jun 05, 2008 01:26 PM

this tab is amzingly correct
but what id say is when he sings
"whats he gonna feed her" in the chorus
play a few 7's on the E string until the next line then continue as the tab says
:):)

guest
You may want to rate the tab now too:
select rating
Wanna post a correction for this tab? Suggest correction