Oops, an error
Loading. Please wait.

A Message To You Rudy Tab

450 views 1 this week
no commentswrite comment
1 2 3 4 5
please rate
add to favorites
launch autoscroll
font size
0
reset
how to read this tab
guitar tuner
Tab Pro tools
  • play this tab
  • loop segment
  • change instrument
  • show fretboard
  • metronome
×
Best way to learn
"A Message To You Rudy"
Autoscroll
slow
fast
+/-
esc
set tempo
stop
Contributor
Difficulty
novice
Band - The Enemy
Song - A Message To You Rudy feat. Neville Staple (The Specials Cover)
Album - B-Sides

Tabbed By: SumFX (Tyler Freear)

Tuning: Standard (E A D G B E)

I Was Excited To Hear That The Enemy Did A Cover Of The Specials,
But This Was Unfortunatly A Fairly Dire And Amateurish 'Pub Rock' Take On A Ska Classic.

Pre Intro
(This Is Where Tom Is Checking To See If He Is In Tune)
|-8-----8---8--8-----|
|-8-----8---8--8-----|
|-9-----9---9--9-----|
|-10----10--10-10----|
|-10----10-----------|
|-8------------------|

Intro
|--8----8--8-----------------|
|--8----8--8----10-----------|
|--9----9--9----10--999-7/9--|
|--10---10-10---10--xxx-x-x--|
|--10---10-10---8---777-5/7--|
|--8----8--8-----------------|

|-8--8--8--8------------------|
|-8--8--8--8---10-10/12-12----|
|-9--9--9--9---10-10/12-12----|
|-10-10-10-10--10-10/12-12----|
|-10-10-10-10--8--8-/10-10----|
|-8--8--8--8------------------|

Verse 1
|-8--8--8--8------------------|
|-8--8--8--8---10-10/12-12----|
|-9--9--9--9---10-10/12-12----| x4
|-10-10-10-10--10-10/12-12----|
|-10-10-10-10--8--8-/10-10----|
|-8--8--8--8------------------|

Verse 2
|-8--8--8--8------------------|
|-8--8--8--8---10-10/12-12----|
|-9--9--9--9---10-10/12-12----| 
|-10-10-10-10--10-10/12-12----| x1
|-10-10-10-10--8--8-/10-10----|
|-8--8--8--8------------------|

|-8--8--8--8---------------|
|-8--8--8--8---10-10-------|
|-9--9--9--9---10-10-12-10-|
|-10-10-10-10--10-10-x--x--| x1
|-10-10-10-10--8--8--10-8--|
|-8--8--8--8---------------|

|-8--8--8--8------------------|
|-8--8--8--8---10-10/12-12----|
|-9--9--9--9---10-10/12-12----| x2
|-10-10-10-10--10-10/12-12----|
|-10-10-10-10--8--8-/10-10----|
|-8--8--8--8------------------|

Chorus
|----------------------------------------|
|----------------------------------------|
|-9---12-14-12-14--9999-1010101010-99-77-|
|-x---x--x--x--x---xxxx-x-x-x-x-x--xx-xx-| x3
|-7---10-12-10-12--7777-8-8-8-8-8--77-55-|
|----------------------------------------|

|-------------------------------------------|
|-------------------------------------------|
|-9---12-14-12-14--9999-1010101010-12121212-|
|-x---x--x--x--x---xxxx-x-x-x-x-x--x-x-x-x--|
|-7---10-12-10-12--7777-8-8-8-8-8--10101010-|
|-------------------------------------------|

Outro
Go Mad With This C Chord
|-8-----|
|-8-----|
|-9-----|
|-10----|
|-10----|
|-8-----|

Structure
Pre Intro
Intro
Verse
Chorus
Verse 2
Chorus
Verse 1
Chorus
Outro

Well There You Have It :/
comments
We did not receive enough feedback on this tab! Please rate:
print report bad tab
1 2 3 4 5
I want to post or [tab]
guest
You may want to rate the tab now too:
select rating
Please do not post tabs as comments. Select "correction" instead!