Oops, an error
Loading. Please wait.

Aggro Bass Tab

version 1
version 1

Whole song

Interactive

2,318 views 6 this week
no commentswrite comment
1 2 3 4 5
please rate
add to favorites
launch autoscroll
font size
0
reset
guitar tuner
Autoscroll
slow
fast
+/-
esc
set tempo
stop
Help us to improve Ultimate-Guitar.com Take our survey!
×
Tuning: Standard


Verse

G|--------------------------|
D|--------------------------|
A|--4-4-4-4-2-2-5-5-5-5-5-5-|
E|--------------------------|


Pre-Chorus

G|--------------------|
D|--------------------|
A|--------------------|
E|--2-2-2-2-0-0-3-3-3-|



Chorus:

G|------------------------------------------------------------------|
D|------------------------------------------------------------------|
A|--4-4-4-4-4-4-4-4-2-2-2-2-2-2-2-2-------------------------2-2-5-5-|
E|----------------------------------4-4-4-4-4-4-4-4-2-2-2-2---------|


Pre-Verse:

G|--------------------------------------|
D|--------------------------------------|
A|--4-4-4-4-2-2-5-5-5-5-5-5-4-4-4-4-2-5~|
E|--------------------------------------|


Bridge part 1:

  PLAY THIS PART ONLY ONCE |   PLAY THIS PART 4 TIMES
  (BRIDGE INTRO AFTER CHORUS)           
G|-------------------------|-------------------------|
D|-------------------------|-------------------------|
A|-4~~~~~------------------|---------9~~~7~654~~~~~~-|
E|-------------------------|-------------------------|

Bridge part 2 (BACK INTO CHORUS)

G|----------------------------|
D|----------------------------|
A|-9~~~10~~111111111111111111-|
E|----------------------------|

(THESE ARE FRET 11 NOT 1)


THAT'S EVERYTHING, VERY EASY SONG. ENJOY
Suggest correction
Give kudos to tab author, rate the tab!
1 2 3 4 5
comments
print report bad tab
guest
You may want to rate the tab now too:
select rating
Please do not post tabs as comments. Select "correction" instead!