Oops, an error
Loading. Please wait.

Aggro Tab

version 1
version 1

Whole song

Interactive

15,799 views 9 this week
6 commentsread comments
1 2 3 4 5
excellent!
x 9
add to favorites
launch autoscroll
font size
0
reset
how to read this tab
guitar tuner
Autoscroll
slow
fast
+/-
esc
set tempo
stop
Help us to improve Ultimate-Guitar.com Take our survey!
×
Author
Difficulty
novice
-------------------------------------------------------------------------------
                             Aggro - The Enemy
-------------------------------------------------------------------------------
Tabbed by:AJ

Tuning:Standard


Intro:

e|---------------------------------------------------------------------------|
B|---------------------------------------------------------------------------|
G|--6-6-6-6-4-4-7-7-7-7-7-7--------------------------------------------------|
D|--6-6-6-6-4-4-7-7-7-7-7-7---x4---------------------------------------------|
A|--4-4-4-4-2-2-5-5-5-5-5-5--------------------------------------------------|
E|---------------------------------------------------------------------------|


Verse:

e|---------------------------------------------------------------------------|
B|---------------------------------------------------------------------------|
G|--6-6-6-6-4-4-7-7-7-7-7-7--------------------------------------------------|
D|--6-6-6-6-4-4-7-7-7-7-7-7--x4----------------------------------------------|
A|--4-4-4-4-2-2-5-5-5-5-5-5--------------------------------------------------|
E|---------------------------------------------------------------------------|

Pre-Chorus:

e|---------------------------------------------------------------------------|
B|---------------------------------------------------------------------------|
G|---------------------------------------------------------------------------|
D|--4-4-4-4-2-2-5-5-5--------------------------------------------------------|
A|--4-4-4-4-2-2-5-5-5--x4----------------------------------------------------|
E|--2-2-2-2-0-0-3-3-3--------------------------------------------------------|

Chorus:

e|---------------------------------------------------------------------------|
B|---------------------------------------------------------------------------|
G|--6-6-6-6-6-6-6-6-2-2-2-2-2-2-2-2-------------------------4-4-7-7----------|
D|--6-6-6-6-6-6-6-6-2-2-2-2-2-2-2-2-6-6-6-6-6-6-6-6-4-4-4-4-4-4-7-7----------|
A|--4-4-4-4-4-4-4-4-0-0-0-0-0-0-0-0-6-6-6-6-6-6-6-6-4-4-4-4-2-2-5-5----------|
E|----------------------------------4-4-4-4-4-4-4-4-2-2-2-2------------------|


Pre-Verse:

e|---------------------------------------------------------------------------|
B|---------------------------------------------------------------------------|
G|--6-6-6-6-4-4-7-7-7-7-7-7-6-6-6-6-4-7~~~~----------------------------------|
D|--6-6-6-6-4-4-7-7-7-7-7-7-6-6-6-6-4-7~~~~----------------------------------|
A|--4-4-4-4-2-2-5-5-5-5-5-5-4-4-4-4-2-5~~~~----------------------------------|
E|---------------------------------------------------------------------------|

Repeat verse.
Repeat chorus.


Bridge:

e|---------------------------------------------------------------------------|
B|---------------------------------------------------------------------------|
G|---------------------------------------------------------------------------|
D|--6~~~~~~~-11~~~-9~~~-6~~~~~~~-11~~~-9~~~-6~~~~~~~-------------------------|
A|--4~~~~~~~-9~~~~-7~~~-4~~~~~~~-9~~~~-7~~~-4~~~~~~~-------------------------|
E|---------------------------------------------------------------------------|

e|---------------------------------------------------------------------------|
B|---------------------------------------------------------------------------|
G|--11~~~-9~~~-6~~~~~~~-11~~~-12~~~-13~~~~~~~--------------------------------|
D|--9~~~~-7~~~-4~~~~~~~-9~~~~-10~~~-11~~~~~~~--------------------------------|
A|---------------------------------------------------------------------------|
E|---------------------------------------------------------------------------|

Repeat Chorus.

SORTED!
Suggest correction
What's this?
You can suggest a correction to this tab. Community and Mods will review your correction and vote to approve or reject it.
comments
print report bad tab
6 comments total. Showing first comments.
0 reply
markyboy101 474 wrote on December 31 2007, 11:25 am

Top notch, i figured it the other day and thats exactly what I played while listening to it. *****

+1 reply
kool-kid54 92 wrote on January 5 2009, 12:04 pm

in the chorus shouldn't the second chord be B5?

0 reply
fightingfoo05 27 wrote on May 6 2009, 07:46 am

it should be a B5 in there. sounds nothing like an Em. otherwise good tab

guest
You may want to rate the tab now too:
select rating
Please do not post tabs as comments. Select "correction" instead!