Oops, an error
Loading. Please wait.

Aggro Tab

version 3
version 3

Whole song

Interactive

1,413 views 1 this week
no commentswrite comment
1 2 3 4 5
1 last vote to show rating
add to favorites
launch autoscroll
font size
0
reset
how to read this tab
guitar tuner
Autoscroll
slow
fast
+/-
esc
set tempo
stop
Help us to improve Ultimate-Guitar.com Take our survey!
×
Author
-------------------------------------------------------------------------------
                             AGGRO - The Enemy
-------------------------------------------------------------------------------
Tabbed by: Bookworm_nai
Email: Bookworm_nai_868@yahoo.com

Tuning: Standard

I know this tab isn't 100% correct, but it's closer than the 
other ones on this site



Intro x2

e|-------------------------------------------------------|
B|-------------------------------------------------------|
G|-6--6--6--6--64-4--47777776--6--6--6--64-4--4777777----| 
D|-x--x--x--x--xx-x--xxxxxxxx--x--x--x--xx-x--xxxxxxx----|
A|-4--4--4--4--42-2--25555554--4--4--4--42-2--2555555----|
E|-------------------------------------------------------|


Verse x2
...Call the police...
e|-------------------------------------------------------|
B|-------------------------------------------------------|
G|-6--6--6--6--64-4--47777776--6--6--6--64-4--4777777----| 
D|-x--x--x--x--xx-x--xxxxxxxx--x--x--x--xx-x--xxxxxxx----|
A|-4--4--4--4--42-2--25555554--4--4--4--42-2--2555555----|
E|-------------------------------------------------------|


Pre-Chorus
...Do what you liike...
e|-------------------------------------------------|
B|-------------------------------------------------|
G|-------------------------------------------------|
D|-------------------------------------------------|
A|-6~~~--4~~~-4--4--4--6~~~--4~~~-6--6--6--4~~~----|
E|-4~~~--2~~~-2--2--2--4~~~--2~~~-4--4--4--2~~~----|

e|-------------------------------|
B|-------------------------------|
G|-------------------------------|
D|-------------------------------|
A|-4~~~-6--6--6--4~~~4~~~4~~~----|
E|-2~~~-4--4--4--2~~~2~~~2~~~----|


Chorus x2
...Ahh, we'll set the streets on fire...
e|--------------------------------------------------------------------|
B|--------------------------------------------------------------------|
G|-6--6--6--6--6--66-66-66-64--4--4--4--4--44-44-44-4-----------------|
D|-6--6--6--6--6--66-66-66-64--4--4--4--4--44-44-44-46--6--6--6--6----|
A|-4--4--4--4--4--44-44-44-42--2--2--2--2--22-22-22-26--6--6--6--6----|
E|---------------------------------------------------4--4--4--4--4----|

e|----------------------------------------|
B|----------------------------------------|
G|--------------------------4444-47--7----|
D|-66-66-66-64--4--4--4--4--4444-47--7----|
A|-66-66-66-64--4--4--4--4--2222-25--5----|
E|-44-44-44-42--2--2--2--2----------------|


Intro2

e|-------------------------------------------------------|
B|-------------------------------------------------------|
G|-6--6--6--6--64-4--47777776--6--6--6--64--7~~~---------| 
D|-x--x--x--x--xx-x--xxxxxxxx--x--x--x--xx--x------------|
A|-4--4--4--4--42-2--25555554--4--4--4--42--5~~~---------|
E|-------------------------------------------------------|


Verse2 
(Guitar 1) x2
...Blood on the streets...
e|-------------------------------------------------------|
B|-------------------------------------------------------|
G|-6--6--6--6--64-4--47777776--6--6--6--64-4--4777777----| 
D|-x--x--x--x--xx-x--xxxxxxxx--x--x--x--xx-x--xxxxxxx----|
A|-4--4--4--4--42-2--25555554--4--4--4--42-2--2555555----|
E|-------------------------------------------------------|

(Guitar 2) x4
e|---------------------------------------------------|
B|-14141414xxx14141414xxx12121212xxx151515151515-----|
G|-13131313xxx13131313xxx11111111xxx141414141414-----| 
D|-11111111xxx11111111xxx-9-9-9-9xxx121212121212-----|
A|---------------------------------------------------|
E|---------------------------------------------------|


Pre-Chorus


Chorus x2


Bridge
e|----------------------------------------------------------|
B|----------------------------------------------------------|
G|----------------------------------------------------------|
D|-4~~~~~---11~~~--9~~-9--7--6~~~--11~~~--9~~-9--7--6~~~----|
A|-4~~~~~----9~~~--7~~-7--5--4~~~---9~~~--7~~-7--5--4~~~----|
E|-0~~~~~---------------------------------------------------|

e|---------------------0~--------------------------|
B|---------------------0~--------------------------|
G|-------------------------------------------------|
D|-11~~~--9~~-9--7--6~----11~~~--12~~~--13---------|
A|--9~~~--7~~-7--5--4~-----9~~~--10~~~--11---------|
E|-------------------------------------------------|
                     (Strum G# very quickly into the chorus)
 
Chorus x2


End Song
Suggest correction
Give kudos to tab author, rate the tab!
1 2 3 4 5
comments
print report bad tab
guest
You may want to rate the tab now too:
select rating
Wanna post a correction for this tab? Suggest correction