Oops, an error
Loading. Please wait.

Away From Here Tab

22,497 views 9 this week
11 commentsread comments
1 2 3 4 5
x 15
add to favorites
launch autoscroll
font size
0
reset
how to read this tab
guitar tuner
×
Best way to learn
"Away From Here"
Autoscroll
slow
fast
+/-
esc
set tempo
stop
Author
-------------------------------------------------------------------------------
                             Away From Here - The Enemy
-------------------------------------------------------------------------------
Tabbed by:Samlawd
Email:Sam_Bell@hotmail.co.uk

Tuning:Standard

  Intro/Verse 1
e|---------------------------------------------------------------------------|
B|---------------------------------------------------------------------------|
G|-6-6~~---------------------------------------------------------------------|
D|-6-6~~---4-4~~--4-4~~--4-4/6~~--6-6~~--6-6\4~~--4-4~-4-4-4-4-4-4-4-4-4-4-4-|
A|-4-4~~---4-4~~--4-4~~--4-4/6~~--6-6~~--6-6\4~~--4-4~-4-4-4-4-4-4-4-4-4-4-4-|
E|---------2-2~~--2-2~~--2-2/4~~--4-4~~--4-4\2~~--2-2~-2-2-2-2-2-2-2-2-2-2-2-|

  Chorus
e|---------------------------------------------------------------------------|
B|---------------------------------------------------------------------------|
G|-6-6-6-6-6-6-5-5-5-5-5-5---------------------------------------------------|
D|-6-6-6-6-6-6-6-6-6-6-6-6--x2 then--4-4-4-4-4-3-3-3-3-3-3-3-----------------|
A|-4-4-4-4-4-4-3-3-3-3-3-3-----------4-4-4-4-4-4-4-4-4-4-4-4-x2--------------|
E|-----------------------------------2-2-2-2-2-2-2-2-2-2-2-2-----------------|

  verse 2
e|---------------------------------------------------------------------------|
B|---------------------------------------------------------------------------|
G|-6-6-6-6-6-5-6-5-6-5-6-----------------------------------------------------|
D|-x-x-x-x-x-x-x-x-x-x-x-x2 then--4-4-4-4-4-3-4-3-4-3-4----------------------|
A|-4-4-4-4-4-4-4-4-4-4-4----------4-4-4-4-4-4-4-4-4-4-4-x2-------------------|
E|--------------------------------2-2-2-2-2-2-2-2-2-2-2----------------------|

  pre-chorus
e|---------------------------------------------------------------------------|
B|---------------------------------------------------------------------------|
G|---------------------------------------------------------------------------|
D|-6-6-6-6-6-6-6-6-6-6-6-6-6-4-4-4-4-4-4-4-4-4-4-4-4-4-----------------------|
A|-6-6-6-6-6-6-6-6-6-6-6-6-6-4-4-4-4-4-4-4-4-4-4-4-4-4-----------------------|
E|-4-4-4-4-4-4-4-4-4-4-4-4-4-2-2-2-2-2-2-2-2-2-2-2-2-2-----------------------|


  Repeat Chorus


  Middle/Solo thing
e|---------------------------------------------------------------------------|
B|---------------------------------------------------------------------------|
G|-6-6-6-6-6-5-6-6-5-6-6-6----6-6-6-6-6/8/10-11-10-11-11-11-10\6-6-6/11-10\--|
D|-x-x-x-x-x-x-x-x-x-x-x-x----x-x-x-x-x-x-x--x--x--x--x--x--x--x-x-x-x--x----|
A|-4-4-4-4-4-3-4-4-3-4-4-4----4-4-4-4-4/6/8--9--8--9--9--9--8-\4-4-4/9--8-\--|
E|---------------------------------------------------------------------------|

e|---------------------------------------------------------------------------|
B|---------------------------------------------------------------------------|
G|\6-6-6/11-10-11-11-11-10-11-10---------------------------------------------|
D|-x-x-x-x--x--x--x--x--x--x--x--etc.----------------------------------------|
A|\4-4-4/9--8--9--9--9--8--9--8----------------------------------------------|
E|---------------------------------------------------------------------------|

  Verse 3 - Repeat Verse 2
  
  Then

  Repeat Pre-chorus

  Final Chorus
e|---------------------------------------------------------------------------|
B|---------------------------------------------------------------------------|
G|--------6-6-6-6-6-6-5-5-5-5-5-5--------------------------------------------|
D|-4~~----6-6-6-6-6-6-6-6-6-6-6-6--x2 then--4-4-4-4-4-4-3-3-3-3-3-3----------|
A|-4~~----4-4-4-4-4-4-3-3-3-3-3-3-----------4-4-4-4-4-4-4-4-4-4-4-4-x2-------|
E|-2~~--------------------------------------2-2-2-2-2-2-2-2-2-2-2-2----------|

e|---------------------------------------------------------------------------|
B|---------------------------------------------------------------------------|
G|-6~~-----------------------------------------------------------------------|
D|-6~~-----------------------------------------------------------------------|
A|-4~~--4b6-4-4-4-4---4~~----------------------------------------------------|
E|---------------------------------------------------------------------------|



sorry if theres mistakes folks :]
i cant figure out how it ends either so dont criticise an attempt.
if you know you can do better, why dont you tab it instead
thanks (y)
Suggest correction
comments
print report bad tab
11 comments total. Showing first comments.
-1 reply
huggers44 72 May 25, 2007 09:02 AM

yeah it ain't too bad....there isn't much need for drop D tuning until the last note which u could play on the D string...Chorus is a bit dodgy and some lyrics would be nice...but otherwise good..

+1 reply
cleaves69 10 Jun 02, 2007 08:38 AM

pretty good... 4*

+2 reply
Dom_y2k4 210 Jun 08, 2007 08:02 AM

ye i tried tabbin this and couldnt hack it so nice one mate! :)

guest
You may want to rate the tab now too:
select rating
Wanna post a correction for this tab? Suggest correction