Oops, an error
Loading. Please wait.

Be Somebody Bass Tab

1,480 views 1 this week
1 commentread comment
1 2 3 4 5
3 more votes to show rating
add to favorites
launch autoscroll
font size
0
reset
guitar tuner
Autoscroll
slow
fast
+/-
esc
set tempo
stop
Help us to improve Ultimate-Guitar.com Take our survey!
×
Difficulty
novice
-------------------------------------------------------------------------------
			     Be Somebody - The Enemy
-------------------------------------------------------------------------------

Tabbed By : Gillyop

Tuning: Standard (E,A,D,G)

INTRO:
G|---------------------------------------------------------------------------|
D|---------------------------------------------------------------------------|
A|---------------------------------------------------------------------------|
E|-9(x16)-8(x16)-7(x16)-6(x16)-5(x16)-4(x16)-2-2--2-2--2-2--2/9--------------|

VERSES (Part 1)
G|---------------------------------------------------------------------------|
D|---------------------------------------------------------------------------|
A|-----11-9-----9-11----(Repeat Untill Change)-------------------------------|
E|-9-9------9-9--------------------------------------------------------------|
(You Know There's No Such Thing.......................)

VERSES (Part 2)
G|---------------------------------------------------------------------------|
D|---------------------------------------------------------------------------|
A|---------------------------------------------------------------------------|
E|-4(x16)-9(x16)-------------------------------------------------------------|
(No One Ever Gets You Anything For Free..........)

PRE-CHORUS
G|---------------------------------------------------------------------------|
D|---------------------------------------------------------------------------|
A|-6-6-6-6-6-8-9-11-11-11-11-11-11-(x2)--------------------------------------|
E|---------------------------------------------------------------------------|
(Nigel Got A Job In The City...........)

G|---------------------------------------------------------------------------|
D|---------------------------------------------------------------------------|
A|-6(x10)-8(x10)-------------------------------------------------------------|
E|---------------2(x10)-4(x20)-----------------------------------------------|
(Sloging His Guts Out All Through The Week..................)

CHORUS/ GUITAR SOLO
G|---------------------------------------------------------------------------|
D|---------------------------------------------------------------------------|
A|-4(x16)--------------------------------------------------------------------|
E|--------4(x16)-2(x16)-4(x16)-----------------------------------------------|

(On The Last Time Round, Play The 4th Fret Along With The Vocals "Solid Gold")

OUTRO
G|---------------------------------------------------------------------------|
D|---------------------------------------------------------------------------|
A|---------------------------------------------------------------------------|
E|-4/9~----------------------------------------------------------------------|


| /  slide up
| \  slide down
| h  hammer-on
| p  pull-off
| ~  vibrato
| +  harmonic
| x  Mute note
===============================================================================
Suggest correction
Give kudos to tab author, rate the tab!
1 2 3 4 5
comments
print report bad tab
1 comment total.
0 reply
Razza999 101 Feb 20, 2016 02:15 PM

Verse (Part 1) should be as follows

VERSES (Part 1)
G|---------------------------------------------------|
D|---------------------------------------------------|
A|--11--11--9-8--11--11--9-8--------11-9-------11-9--|
E|----------------------------9--9--------9--9-------|
(You Know There's No Such Thing.......................)

guest
You may want to rate the tab now too:
select rating
Wanna post a correction for this tab? Suggest correction