Oops, an error
Loading. Please wait.

Be Somebody Tab

version 1
version 1

Whole song

11,888 views 6 this week
1 commentread comment
1 2 3 4 5
accurate
x 4
add to favorites
launch autoscroll
font size
0
reset
how to read this tab
guitar tuner
Tab Pro tools
  • play this tab
  • loop segment
  • change instrument
  • show fretboard
  • metronome
×
Best way to learn
"Be Somebody"
Autoscroll
slow
fast
+/-
esc
set tempo
stop
Contributor
(Not sure if guitar chorus is right, but rest of the song i'm sure is good)

Guitar...

Intro
e|-------------------------------------------------------------------|
B|-------------------------------------------------------------------|
G|-------------------------------------------------------------------|
D|-11------10------9------8------7------6------4-4--4-4--4-4--4------|
A|-11-(x8)-10-(x8)-9-(x8)-8-(x8)-7-(x8)-6-(x8)-4-4--4-4--4-4--4-(x8)-|
E|-9-------8-------7------6------5------4------2-2--2-2--2-2--2------|

Riff 1
e|----------------------------------------------------|
B|----------------------------------------------------|
G|----------------------------------------------------|
D|-11-11--11-11--11-11--11-11--6-6--6-6--11-11--11-11-|
A|-x--x---x--x---x--x---x--x---x-x--x-x--x--x---x--x--|
E|-9--9---9--9---9--9---9--9---4-4--4-4--9--9---9--9--|

Riff 2
e|------------------|
B|------------------|
G|------------------|
D|-6-------11-------|
A|-6-(x16)-11-(x16)-|
E|-4-------9--------|

Riff 3
e|-----------------------------|
B|-----------------------------|
G|-----------------------------|
D|-4-4-4-4--6-6-7--11-11-11-11-|
A|-4-4-4-4--6-6-7--11-11-11-11-|
E|-2-2-2-2--4-4-5--9--9--9--9--|

Riff 4
e|-------------------------------|
B|-------------------------------|
G|-------------------------------|
D|-4------6------7------11-------|
A|-4-(x8)-6-(x8)-7-(x8)-11-(x16)-|
E|-2------4------5------9--------|

Chorus 1
e|----------------------------------|
B|----------------------------------|
G|----------------------------------|
D|-11-------6-------4-------6-------|
A|-11-(x16)-6-(x16)-4-(x16)-6-(x16)-|
E|-9--------4-------2-------4-------|

Chorus 2
e|-------------------------------|
B|-------------------------------|
G|-------------------------------|
D|-4-------6-6--6-6--6-6--6------|
A|-4-(x16)-6-6--6-6--6-6--6-(x8)-|
E|-2-------4-4--4-4--4-4--4------|

Pre Verse
e|--------------|
B|--------------|
G|--------------|
D|-11-11--11-11-|
A|-x--x---x--x--|
E|-9--9---9--9--|

Solo
e|------------------------------|
B|------------------------------|
G|-------8-6--8b(9)(9)(9)-8p6---|
D|-----6----------------------8-|
A|-6/8--------------------------|
E|------------------------------|


Keyboard...

With Riff 4
e|-------13----14----16-|
B|-16-------------------|

Chorus
e|-16-16-16-16-16-13---13----14-11----|
B|-------------------16------------13-|

With Chorus 2
e|-16-16--16-16--16-16--16-16-16-16-16-16-16-16-|
B|----------------------------------------------|

Play Order
Intro
Riff 1
Riff 2
Riff 3
Riff 4
Chorus 1 x3
Chorus 2 
Pre Verse
Riff 1
Riff 2
Riff 3
Riff 4
Chorus 1 x3
Chorus 2
Chorus 1 x4
Solo x3 - Chorus x3
Chorus 2
comments
print report bad tab
1 comment total.
0 reply
anthonyrt wrote on November 25 2015, 07:09 am

on the intro is it actually x8 on the last part because that seems too long? 5 stars tho

I want to post or [tab]
guest
You may want to rate the tab now too:
select rating
Please do not post tabs as comments. Select "correction" instead!