Oops, an error
Loading. Please wait.

Come Into My World Tab

86 views 1 this week
no commentswrite comment
1 2 3 4 5
please rate
add to favorites
launch autoscroll
font size
0
reset
how to read this tab
guitar tuner
Autoscroll
slow
fast
+/-
esc
set tempo
stop
Help us to improve Ultimate-Guitar.com Take our survey!
×
Contributor
Difficulty
JooshY94 177
novice
The Enemy
Come Into My World

Taken From Full Album Tab by Dan Stobbart (DStobbs) and Scott Eveleigh


Standard Tuning  (E A D G B e)



Intro

e|---------------------------|
B|---------------------------|
G|-9--8----------------------|
D|-9--9--9--8----------------|
A|-7--6--9--9----------------|
E|-------7--6----------------|

Verse 1

e|------------------------------|
B|------------------------------|
G|-------9--------9-------------|
D|-4--4--9--9--4--9--4----------|
A|-4--4--7--9--4--7--4----------|
E|-2--2-----7--2-----2----------|

Chorus 1

e|---------------------------|
B|---------------------------|
G|---------------------------|
D|-11--9--4------------------|
A|-11--9--4------------------|
E|-9---7--2------------------|

Verse 2 = Verse 1

Pre-Chorus 1

e|------------------------------------------------------|
B|------------------------------------------------------|
G|-6--8--10--11--8--10--11--13---11------------13---11--|
D|-6--8--10--11--8--10--11--13---11------------13---11--|
A|-4--6--8---9---6--8---9---11---9-------------11---9---|
E|------------------------------------------------------|

Chorus  2 = chorus 1


Bridge 1

e|---------------------------|
B|---------------------------|
G|-------7-------------------|
D|-8--9--7--4--8--9--11------|
A|-8--9—-4--8--9--9--11------|
E|-6--7-----2--6--7--9-------|






Intro Progression 1
e|---------------------------|
B|---------------------------|
G|-9--8----------------------|
D|-9--9--9--8--4-------------|
A|-7--6--9--9--4-------------|
E|-------7--6--2-------------|

Chorus 3 = Chorus 1&2

Outro 1
e|---------------------------|
B|---------------------------|
G|-9--8----------------------|
D|-9--9--9--8--4-------------|
A|-7--6--9--9--4-------------|
E|-------7--6--2-------------|
comments
We did not receive enough feedback on this tab! Please rate:
print report bad tab
1 2 3 4 5
I want to post or [tab]
guest
You may want to rate the tab now too:
select rating
Please do not post tabs as comments. Select "correction" instead!