Oops, an error
Loading. Please wait.

Dont Break The Red Tape Bass

142 views 1 this week
no commentswrite comment
1 2 3 4 5
3 more votes to show rating
add to favorites
×
Save as Personal and add changes to this tab that will be seen only by you. Learn more ›
×
You can save this tab as Personal to edit and correct it or add notes. All changes will be seen only by you. Learn more »
save as personal
new!
launch autoscroll
font size
0
reset
guitar tuner
Autoscroll
slow
fast
+/-
esc
set tempo
stop
Difficulty
novice
------------------------------------------------------|
                 Dont break the red tape - The Enemy--|


Tuning:EADG

Intro ( play when the drums come in )

G|-----------------------------------------------------------------------------|
D|-----------------------------------------------------------------------------|
A|-----------------------------------------------------------------------------|
E|-8-8-8-8--3-3-3-3------------------------------------------------------------|x2

verse ( same for every verse )

G|-----------------------------------------------------------------------------|
D|-----------------------------------------------------------------------------|
A|-----------------------------------------------------------------------------|
E|-8-8-8-8--3-3-3-3--5-5-5-5--7-7-7-7------------------------------------------|x2
Pre chorus

G|-----------------------------------------------------------------------------|
D|-----------------------------------------------------------------------------|
A|-----------------------------------------------------------------------------|
E|-8---3--5-------5-7-8---3---5--7---------------------------------------------|x1

chorus

G|-----------------------------------------------------------------------------|
D|-----------------------------------------------------------------------------|
A|-----------------------------------------------------------------------------|
E|-7-7-7-7--8-8-8-8--3-3-3-3--5-5-7-7------------------------------------------|
x1

Play inro x2
Verse x1
pre chorus x1
chorus x2

then after second chorus play:

G|-----------------------------------------------------------------------------|
D|-----------------------------------------------------------------------------|
A|-----------------------------------------------------------------------------|
E|-88--33--55--7788------------------------------------------------------------|
x2

solo

G|-----------------------------------------------------------------------------|
D|-----------------------------------------------------------------------------|
A|-----------------------------------------------------------------------------|
E|-7-7-7-7--8-8-8-8--3-3-3-3-5-5-7-7-------------------------------------------|
x2

pre chourus x2
Chorus x5

Outro
G|-----------------------------------------------------------------------------|
D|-----------------------------------------------------------------------------|
A|-----------------------------------------------------------------------------|
E|-7--8--3--5--7----7--8--3--5-------------------------------------------------|x1


| /  slide up
| \  slide down
| h  hammer-on
| p  pull-off
| ~  vibrato
| +  harmonic
| x  Mute note
Suggest correction
Give kudos to tab author, rate the tab!
1 2 3 4 5
comments
print report bad tab
guest
Wanna post a correction for this tab? Suggest correction