Oops, an error
Loading. Please wait.

Elephant Song Bass Tab

614 views 1 this week
no commentswrite comment
1 2 3 4 5
please rate
add to favorites
launch autoscroll
font size
0
reset
guitar tuner
Autoscroll
slow
fast
+/-
esc
set tempo
stop
Help us to improve Ultimate-Guitar.com Take our survey!
×
Author
-------------------------------------------------------------------------------
			     Elephant song – The Enemy
-------------------------------------------------------------------------------

Tabbed By : Big1Damo
e-mail: 

Tuning:

1:43

intro
G|-5--5----------------------------------------------------------------------|
D|-------0—-9--0--10--0--10--11--11--11--------------------------------------|
A|---------------------------------------------------------------------------|
E|---------------------------------------------------------------------------|

X2
G|---------------------------------------------------------------------------|
D|---------------------------------------------------------------------------|
A|----- /12--12--10--10--0--9--0--10--0--10--12--12--12----------------------|
E|--5------------------------------------------------------------------------|
X2
G|---------------------------------------------------------------------------|
D|---------------------------------------------------------------------------|
A|-----12--12--12--10-----12--12--12--10-----12--12--12--10-----12--12--12---|
E|--5------------------5------------------5------------------5---------------|

G|-------------------|
D|------10--10-------|
A|--10---------------|
E|-------------------|
X3
G|---------------------------------------------------------------------------|
D|--10—h12--12--12--12--12--10--10--10--10-----------------------------------|
A|---------------------------------------------------------------------------|
E|---------------------------------------------------------------------------|

G|---------------------------------------------------------------------------|
D|--10-h-12--12--12--12--12--12--12--12--12----------------------------------|
A|---------------------------------------------------------------------------|
E|---------------------------------------------------------------------------|

Here’s everything you need. This track is amazing!


| /  slide up
| \  slide down
| h  hammer-on
| p  pull-off
| ~  vibrato
| +  harmonic
| x  Mute note
===============================================================================

Suggest correction
Give kudos to tab author, rate the tab!
1 2 3 4 5
comments
print report bad tab
guest
You may want to rate the tab now too:
select rating
Wanna post a correction for this tab? Suggest correction