Oops, an error
Loading. Please wait.

Had Enough Bass Tab

version 1
version 1

Whole song

Interactive

2,639 views 1 this week
no commentswrite comment
1 2 3 4 5
please rate
add to favorites
launch autoscroll
font size
0
reset
guitar tuner
Autoscroll
slow
fast
+/-
esc
set tempo
stop
Help us to improve Ultimate-Guitar.com Take our survey!
×
Author
The Enemy
Had Enough

Please Rate. x


Intro

G|----------------------------------------|
D|----11-------9-----8------9-------------|
A|-------x8------x4-----x2----x2----------|   x2
E|--9--------7------6------7--------------|


Verse - Same as intro


Chorus

G|-----------6------------------|
D|----4-------------4-----6-----|
A|------x8--4--x8-----x8----x8--|    You can just play the E and A notes, but sounds good
E|--2--------------2-----4------|     with the higher octaves too, how Andy plays it.


After chorus little bit, before verse 2

G|-------------------|
D|----11-------9-----|
A|-------x6------x2--|   x2
E|--9--------7-------|


G|----------------------|
D|----11----------------|
A|-------x a lot--------|
E|--9-------------------|


Outro - Same as Pre-verse

End on

G|-------------------|
D|----11-------------|
A|-------------------|
E|--9---9------------|

Order:

Intro
Verse
Chorus
Pre-Verse
Verse
Chorus
Bridge
Chrous
Outro

Jack00743 x
Suggest correction
Give kudos to tab author, rate the tab!
1 2 3 4 5
comments
print report bad tab
guest
You may want to rate the tab now too:
select rating
Please do not post tabs as comments. Select "correction" instead!