Oops, an error
Loading. Please wait.

Had Enough Tab

version 1
version 1

Whole song

Interactive

6,102 views 3 this week
3 commentsread comments
1 2 3 4 5
x 5
add to favorites
launch autoscroll
font size
0
reset
how to read this tab
guitar tuner
Autoscroll
slow
fast
+/-
esc
set tempo
stop
Help us to improve Ultimate-Guitar.com Take our survey!
×
Author
-------------------------------------------------------------------------------
                             HAD ENOUGH - THE ENEMY                      
-------------------------------------------------------------------------------
Tabbed by: Jenks

Intro and Verse:

e|---------------------------------------------------------------------------|
B|---------------------------------------------------------------------------|
G|--6---------4--------3--------4--------------------------------------------|
D|--6---x16---4---x8---3---x5---4----x3--------------------------------------|
A|--4---------2--------1--------2--------------------------------------------|
E|---------------------------------------------------------------------------|

Chorus:

    F#    C#    F#    G#

e|--2-----------2-----4------------------------------------------------------|
B|--2-----6-----2-----4------------------------------------------------------|
G|--3-----6-----3-----5------------------------------------------------------|
D|--4-----6-----4-----6------------------------------------------------------|
A|--4-----4-----4-----6------------------------------------------------------|
E|--2-----------2-----4------------------------------------------------------|


Bridge:


e|---------------------------------------------------------------------------|
B|--4------------------------------------------------------------------------|
G|--6---Repeat---------------------------------------------------------------|
D|--6------------------------------------------------------------------------|
A|---------------------------------------------------------------------------|
E|---------------------------------------------------------------------------|


Suggest correction
comments
print report bad tab
3 comments total.
0 reply
LiamG 52 May 28, 2007 01:32 PM

Youve tabbed it out up side down.. come sort it out!

0 reply
LiamG 52 May 28, 2007 01:33 PM

Youve tabbed it out upside down...come on sort it out

0 reply
austieman 47 Dec 10, 2007 05:21 PM

No idea what the guy above is chattin about, but it looks fine to me. Few bits missing, but thats about it. Good Tab!

guest
You may want to rate the tab now too:
select rating
Wanna post a correction for this tab? Suggest correction