Oops, an error
Loading. Please wait.

Had Enough Tab

version 2
version 2

Whole song

Interactive

1,149 views 3 this week
no commentswrite comment
1 2 3 4 5
please rate
add to favorites
launch autoscroll
font size
0
reset
how to read this tab
guitar tuner
Autoscroll
slow
fast
+/-
esc
set tempo
stop
Help us to improve Ultimate-Guitar.com Take our survey!
×
Author
Difficulty
novice
I Worked This Tab Out By Listening To The Song.

Intro / Verse
                            
e|--------------------------------------------------------------------------I
B|--------------------------------------------------------------------------I
G|--------------------------------------------------------------------------I
D|--18--18--18--18--18--18--16--16--16--16--15--15--15--15--16--16--16--16--I
A|--------------------------------------------------------------------------I
E|--16--16--16--16--16--16--14--14--14--14--13--13--13--13--14--14--14--14--I


Chorus

               
e|------------------------------------------------I
B|------------------------------------------------I
G|----------------------18-18-18-18-18-18---------I
D|--16-16-16-16-16-16---18-18-18-18-18-18---------I
A|--16-16-16-16-16-16---16-16-16-16-16-16---------I
E|--14-14-14-14-14-14-----------------------------I

               
e|-------------------------------------------I
B|-------------------------------------------I
G|-------------------------------------------I
D|--16-16-16-16-16-16--18-18-18-18-18-18-----I
A|--16-16-16-16-16-16--18-18-18-18-18-18-----I
E|--14-14-14-14-14-14--16-16-16-16-16-16-----I


Post Chorus

    
e|-------------------------------I
B|-------------------------------I
G|-------------------------------I
D|--18-18-18-18-18-18-18-18------I x2
A|-------------------------------I
E|--16-16-16-16-16-16-16-16------I


Bridge

    
e|--------------------------------------------I
B|--------------------------------------------I
G|--------------------------------------------I
D|--------------------------------------------I 
A|--18-18-18-18-18-18-18-18-18-18-18-18-18----I
E|--16-16-16-16-16-16-16-16-16-16-16-16-16----I
 ................PM........................

Outro

e|---------------(x2)--------I----------------I
B|---------------------------I----------------I
G|---------------------------I----------------I
D|--18-18-18-18-16-16-16-16--I---18-18-18-18--I
A|---------------------------I----------------I
E|--16-16-16-16-14-14-14-14--I---16-16-16-16--I


Thanks
Suggest correction
Give kudos to tab author, rate the tab!
1 2 3 4 5
comments
print report bad tab
guest
You may want to rate the tab now too:
select rating
Wanna post a correction for this tab? Suggest correction