Oops, an error
Loading. Please wait.

Had Enough Tab

version 4
version 4

Whole song

Interactive

8,133 views 9 this week
3 commentsread comments
1 2 3 4 5
excellent!
x 5
add to favorites
launch autoscroll
font size
0
reset
how to read this tab
guitar tuner
Tab Pro tools
  • play this tab
  • loop segment
  • change instrument
  • show fretboard
  • metronome
Autoscroll
slow
fast
+/-
esc
set tempo
stop
Contributor
-------------------------------------------------------------------------------
                            Had Enough - The Enemy
-------------------------------------------------------------------------------
Tabbed by: Aron
Email: goodsum@hotmail.com

Tuning: Standard


The version i've got plays it like this, but the one they play on the radio uses chords 
than single notes for the intro/verse. If you'd rather, play the chords. I've put the 
as well as tab.


Intro / Verse

    C#                              B               A#      B
e|-------------------------------------------------------------------|
B|-------------------------------------------------------------------|
G|----6---6---6---6---6---6---6---6---4---4---4---4---3---3---4---4--|
D|-------------------------------------------------------------------|
A|--4---4---4---4---4---4---4---4---2---2---2---2---1---1---2---2----|
E|-------------------------------------------------------------------|


Chorus

    F#               C#
e|------------------------------------|
B|------------------------------------|
G|-------------------6-6-6-6-6-6-6-6--|
D|--4-4-4-4-4-4-4-4--6-6-6-6-6-6-6-6--|
A|--4-4-4-4-4-4-4-4--4-4-4-4-4-4-4-4--|
E|--2-2-2-2-2-2-2-2-------------------|

   F#                G#
e|------------------------------------|
B|------------------------------------|
G|------------------------------------|
D|--4-4-4-4-4-4-4-4--6-6-6-6-6-6-6-6--|
A|--4-4-4-4-4-4-4-4--6-6-6-6-6-6-6-6--|
E|--2-2-2-2-2-2-2-2--4-4-4-4-4-4-4-4--|


Post Chorus

    C#
e|-----------------------------------|
B|-----------------------------------|
G|----6---6---6---6---6---6---6---6--|
D|-----------------------------------| x2
A|--4---4---4---4---4---4---4---4----|
E|-----------------------------------|


Bridge

    C#
e|---------------------------|
B|---------------------------|
G|---------------------------|
D|--6-6-6-6-6-6-6-6-6-6-6-6--| ...a lot of times
A|--4-4-4-4-4-4-4-4-4-4-4-4--|
E|---------------------------|
    (        -PM-         )

Outro

e|---------------(x2)----------------|---------|
B|-----------------------------------|---------|
G|----6---6---6---6---4---4---4---4--|--6-6-6--|
D|-----------------------------------|--x-x-x--|
A|--4---4---4---4---2---2---2---2----|--4-4-4--|
E|-----------------------------------|---------|

| /  slide up
| \  slide down
| h  hammer-on
| p  pull-off
| ~  vibrato
| +  harmonic
| x  Mute note
===============================================================================
comments
print report bad tab
3 comments total.
0 reply
markyboy101 wrote on December 31 2007, 11:33 am

That there is the demo, I had that before I bought the album.

0 reply
Christina274 wrote on February 27 2008, 05:03 pm

Not sure if the A is right...

0 reply
goodsum wrote on December 15 2009, 04:50 pm

yer as stated in the tab, its not the mainstream version but i prefer this one

I want to post or [tab]
guest
You may want to rate the tab now too:
select rating
Please do not post tabs as comments. Select "correction" instead!