Oops, an error
Loading. Please wait.

Happy Birthday Jane Bass Tab

850 views 1 this week
no commentswrite comment
1 2 3 4 5
please rate
add to favorites
launch autoscroll
font size
0
reset
guitar tuner
Autoscroll
slow
fast
+/-
esc
set tempo
stop
Help us to improve Ultimate-Guitar.com Take our survey!
×
Author
Band: The Enemy
Album: We'll Live & Die In These Towns
Song: Happy Birthday Jane

~ = let ring
/ = slide up

Please rate

Verse (0:02)

G|-------------5--------------------|
D|-----6---8-------5----------------| 
A|-----------------------6-6---6868-| x6
E|-4--------------------------------|

Chorus (0:40)

G|-----3-------5-------6----/8-6-8--|
D|----------------------------------| 
A|-1-1---1-3-3---3-4-4---4-4--------|
E|----------------------------------|

G|-----------6-5-6---6-5-----5-6-8--|
D|---6-5-----------------6----------| 
A|-------5-33------44------33-------|
E|-44-------------------------------|

G|-----------6-5-6---6-5-----5-6-8--|
D|---6-5-----------------6----------| 
A|-------5-33------44------33-------|
E|-44-------------------------------|

G|----------------------------------|
D|-8-8-8-8-8-8-8-8-8-8-8-8-8-8-8-8--| 
A|----------------------------------|
E|----------------------------------|

Verse (1:06)

G|-------------5~-------------------|
D|-----6~--8~------5~---------------| 
A|-----------------------6-6---6868-| x6
E|-4~-------------------------------|

Chorus (1:45)

G|-----3-------5-------6----/8-6-8--|
D|----------------------------------| 
A|-1-1---1-3-3---3-4-4---4-4--------|
E|----------------------------------|

G|-----------6-5-6---6-5-----5-6-8--|
D|---6-5-----------------6----------| 
A|-------5-33------44------33-------|
E|-44-------------------------------|

G|-----------6-5-6---6-5-----5-6-8--|
D|---6-5-----------------6----------| 
A|-------5-33------44------33-------|
E|-44-------------------------------|

G|----------------------------------|
D|-8-8-8-8-8-8-8-8-8-8-8-8-8-8-8-8--| 
A|----------------------------------|
E|----------------------------------|

Ending: (2:10)

                  x7

G|-----------6-5-6---6-5-----5-6-8--|----|
D|---6-5-----------------6----------|----| 
A|-------5-33------44------33-------|----|
E|-44-------------------------------|-4~-|
Suggest correction
Give kudos to tab author, rate the tab!
1 2 3 4 5
comments
print report bad tab
guest
You may want to rate the tab now too:
select rating
Wanna post a correction for this tab? Suggest correction