Oops, an error
Loading. Please wait.

Happy Birthday Jane Tab

1,816 views 1 this week
no commentswrite comment
1 2 3 4 5
x 4
add to favorites
launch autoscroll
font size
0
reset
how to read this tab
guitar tuner
Autoscroll
slow
fast
+/-
esc
set tempo
stop
Help us to improve Ultimate-Guitar.com Take our survey!
×
Author
Difficulty
novice
the enemy
song: happy birthday jane
album: we'll live and die in these towns

standard tuning

NOTES: in the album version, all the chords played in the song are palm-muted, but if 
acoustic, dont bother.

INTRO

     G#          Cm              G#              Cm
e|-----4-----------------3---------------4---------------3------|
B|-------4-----------4-----4---------------4---------4-----4----|
G|---------5-----------5-------------5-----------------5--------|
D|-----------------5-------------------6-----------5------------|
A|---------------3-----------------6-------------3--------------|
E|---4---------------------------4------------------------------|

VERSE

Good morning jane, happy birthday once again
so what would we do, what would we do without you

     G#           Cm             G#               Cm
e|-----------4------------3--------------4---------------3------|
B|-------------4------4-----4--------------4---------4-----4----|
G|-------5--------------5------------5-----------------5--------|
D|---------6--------5------------------6-----------5------------|
A|-----6----------3----------------6-------------3--------------|
E|---4---------------------------4------------------------------| x2

PRECHORUS

           Cm  Bm  Bbm
without you

Bbm                C#       D#             G#
Wake up the sun is shining, shining for you

CHORUS

Cm               C#       Cm                   G#
to take all your troubles away, just for a day

Cm               C#       Cm
to take all your troubles away, just for a day

Bbm       C#  Cm  G#
day, for a day

BRIDGE
G#    Cm   C#   G#

G#              Cm              C#              Cm             G#
happy birthday, happy birthday, happy birthday, happy birthday jane
Suggest correction
comments
print report bad tab
guest
You may want to rate the tab now too:
select rating
Wanna post a correction for this tab? Suggest correction