Oops, an error
Loading. Please wait.

Its Not Ok Tab

3,757 views 1 this week
no commentswrite comment
1 2 3 4 5
accurate
x 5
add to favorites
launch autoscroll
font size
0
reset
how to read this tab
guitar tuner
Tab Pro tools
  • play this tab
  • loop segment
  • change instrument
  • show fretboard
  • metronome
×
Best way to learn
"Its Not Ok"
Autoscroll
slow
fast
+/-
esc
set tempo
stop
Contributor
the enemy
song: its not ok
album: we'll live and die in these towns

not 100% but it all sounds fine when i jam to it so thought id stick it on here. enjoy!
updated: 29/11/07 - altered prechorus

INTRO
E|----------------------------------------------------|
B|----------------------------------------------------|
G|---15-15-15-15-15-15-15-15-15-15-15-15-15-15-15-15--|
D|---x—-x--x--x--x--x--x--x--x--x--x--x--x--x--x--x---|
A|---13-13-13-13-13-13-13-13-13-13-13-13-13-13-13-13--|
E|----------------------------------------------------|

E|------------------------------------------------|
B|------------------------------------------------|
G|--16-16-16-16-16-16-16-16-18-18-18-18-16-16-16--|
D|--x--x--x--x--x--x--x--x—-x—-x--x--x--x--x--x---|
A|--14-14-14-14-14-14-14-14-16-16-16-16-14-14-14--|
E|------------------------------------------------|

E|------------------------------------------|
B|------------------------------------------|
G|--15-15-15-15-15-16-18-15-15-15-16-15-11--|
D|--x--x--x--x--x--x--x--x—-x—-x--x--x--x---|
A|--13-13-13-13-13-14-16-13-13-13-14-13-9---|
E|------------------------------------------|

E|-------------------------------------------|
B|-------------------------------------------|
G|--9-9-9-9-9-9-9-11-11-11-11-11-11-11-11-11-|  let
D|--x-x-x-x-x-x-x-x—-x--x--x--x--x--x--x--x—-|  ring
A|--7-7-7-7-7-7-7-9--9—-9—-9--9--9--9--9—-9--|
E|-------------------------------------------|

VERSE 1
Don’t play until after the first four lines

00:27
E|------|
B|------|
G|---11-| play this chord
D|---x—-| constantly
A|---9--|
E|------|

PRE CHORUS 00:39
E|-------------------------------------------|
B|-------------------------------------------|
G|--11-11-11--11-11-11--11-11-11—-11-11-11---|
D|--x—-x—-x---x--x--x---x--x--x—--x--x--x----|
A|--9--9--9—--9—-9--9---9--9--9—--9--9--9----|
E|-------------------------------------------|

E|---------------------------------------------------|
B|---------------------------------------------------|
G|--16-16-16-16-16-16-16-16-15-15-15-15-11-11-11-11--|
D|--x--x--x--x--x--x—-x—-x--x--x--x--x--x--x—-x—-x---|
A|--14-14-14-14-14-14-14-14-13—13—13-13-9--9--9—-9---|
E|---------------------------------------------------| x2

E|---------------------------------------------------|
B|---------------------------------------------------|
G|--11-11-11-11-11-11-11-11-10-10-10-10-6-6-6-6------|
D|--x--x--x--x--x--x—-x—-x--x--x--x--x--x-x-x-x------|
A|--9--9--9--9--9--9--9--9--8—-8—-8--8--4-4-4—4------|
E|---------------------------------------------------| x2
Repeat the last two bars again

CHORUS 01:05
E|-----------------------------------|
B|-----------------------------------|
G|--6-6-6-6-6-6-6-6-8-8-8-8-8-8-8-8--|
D|--x-x-x-x-x-x-x-x-x-x-x-x-x-x-x-x--|
A|--4-4-4-4-4-4-4-4-6—6—6-6-6-6-6—6--|
E|-----------------------------------|

E|---------------------------------------------------|
B|---------------------------------------------------|
G|--10-10-10-10-10-10-10-10-13-13-13-13-13-13-13-13--|
D|--x--x--x--x--x--x—-x—-x--x--x--x--x--x--x—-x—-x---|
A|--8--8--8--8--8--8--8--8--11—11—11-11-11-11-11—11--|
E|---------------------------------------------------|

E|----------------------------------------------------|
B|----------------------------------------------------|
G|--11-11-11-11-11-11-11-11-11-11-11-11-11-11-11-11---|
D|--x--x--x--x--x--x—-x—-x--x--x--x--x--x--x—-x—-x----|
A|--9--9--9--9--9--9--9--9--9—-9—-9--9--9--9--9—-9----|
E|----------------------------------------------------|

E|-----------------------------------|
B|-----------------------------------|
G|--9-9-9-9-9-9-9-9-8-8-8-8-8-9-9-11-| let ring
D|--x-x-x-x-x-x-x-x-x-x-x-x-x-x-x-x--|
A|--7-7-7-7-7-7-7-7-6—6—6-6-6-7-7—9--|
E|-----------------------------------|

REPEAT VERSE, PRECHORUS AND CHORUS AGAIN

Solo/bridge 02:21
E|------------------------------------------|
B|------------------------------------------|
G|------------9-9-9-9-9-8-------------------|
D|-8-8-8-9-11-------------9--9-9-11-9-------|
A|------------------------------------------|
E|------------------------------------------|

E|------------------------------------------|
B|------------------------------------------|
G|------------------------------------------|
D|-8-8-8-9-11-9-8---------------------------|
A|----------------9-7-7-7-7-7-9-9-9-9-9-----|
E|------------------------------------------|

PRE CHORUS 02:34

CHORUS 2 03:00
E|-----------------------------------|
B|-----------------------------------|
G|--6-6-6-6-6-6-6-6-8-8-8-8-8-8-8-8--|
D|--x-x-x-x-x-x-x-x-x-x-x-x-x-x-x-x--|
A|--4-4-4-4-4-4-4-4-6—6—6-6-6-6-6—6--|
E|-----------------------------------|

E|---------------------------------------------------|
B|---------------------------------------------------|
G|--10-10-10-10-10-10-10-10-13-13-13-13-13-13-13-13--|
D|--x--x--x--x--x--x—-x—-x--x--x--x--x--x--x—-x—-x---|
A|--8--8--8--8--8--8--8--8--11—11—11-11-11-11-11—11--|
E|---------------------------------------------------|

E|---------------------------------------------------|
B|---------------------------------------------------|
G|--13-13-13-13-13-13-13-13-15-15-15-15-15-15-15-15--|
D|--x--x--x--x--x--x—-x—-x--x--x--x--x--x--x--x--x---|
A|--11—11—11-11-11-11-11—11-13-13-13-13-13-13-13-13--|
E|---------------------------------------------------|

E|---------------------------------------------------|
B|---------------------------------------------------|
G|--16-16-16-16-16-16-16-16-18-18-18-18-18-18-18-18--|
D|--x--x--x--x--x—-x--x--x--x--x--x--x--x--x--x--x---|
A|--14—14—14-14-14-14-14—14-16-16-16-16-16-16-16-16--|
E|---------------------------------------------------|

03:11
E|---------------------------------------------------|
B|---------------------------------------------------|
G|--11-11-11-11-11-11-11-11-11-11-11-11-11-11-11-11--|
D|--x--x--x--x--x--x—-x—-x--x--x--x--x--x--x—-x—-x---|
A|--9--9--9--9--9--9--9--9--9—-9—-9--9--9--9--9—-9---|
E|---------------------------------------------------|

E|-----------------------------------|
B|-----------------------------------|
G|--9-9-9-9-9-9-9-9-8-8-8-8-8-9-9-11-|
D|--x-x-x-x-x-x-x-x-x-x-x-x-x-x-x-x--|   x2
A|--7-7-7-7-7-7-7-7-6—6—6-6-6-7-7—9--|
E|-----------------------------------|


Song structure
INTRO
VERSE
PRE-CHORUS
CHORUS
VERSE
PRE-CHORUS
CHORUS
SOLO/BRIDGE
PRECHORUS
CHORUS 2
comments
print report bad tab
I want to post or [tab]
guest
You may want to rate the tab now too:
select rating
Please do not post tabs as comments. Select "correction" instead!