Oops, an error
Loading. Please wait.

No Time For Tears Tab

version 1
version 1

Whole song

4,290 views 1 this week
no commentswrite comment
1 2 3 4 5
2 more votes to show rating
add to favorites
launch autoscroll
font size
0
reset
how to read this tab
guitar tuner
Autoscroll
slow
fast
+/-
esc
set tempo
stop
Help us to improve Ultimate-Guitar.com Take our survey!
×
Author
No Time For Tears - The Enemy
Music for the people

NOTES:
for the chord:
e|--------|                      e|-------|
B|--------|                      B|-------|
G|--------| you can also play:   G|-11----| 
D|-4------|                      D|-x-----|
A|-x------|                      A|-9-----|
E|-2------|                      E|-------|
as both sound ok but im not sure which one is used

Piano part for intro

e|-14-16-16-16-16-16-16-14-14-14-16-16-16-16-16-16--|
B|--------------------------------------------------|
G|--------------------------------------------------| repeat for as long 
D|--------------------------------------------------| as needed
A|--------------------------------------------------|
E|--------------------------------------------------|

INTRO

e|----------------------------------------------|
B|----------------------------------------------|
G|----------------------------------------------|
D|-9-9-9-9-9-1111--11111111--111199--9944-------|
A|-x-x-x-x-x-x-x---x-x-x-x---x-x-xx--xxxx-------|
E|-7-7-7-7-7-9-9---9-9-9-9---9-9-77--7722-------|

e|-------------------------------------------|
B|-------------------------------------------|
G|-------------------------------------------|
D|-441111--11111111--111199--9944------------|
A|-xxx-x---x-x-x-x---x-x-xx--xxxx------------|
E|-229-9---9-9-9-9---9-9-77--7722------------|

The morning after the revolution
PC1525 told me there was no real solution
Bruised ribs and a ripped up jacket
Money all in the road
Some blonde with a big fat mouth screaming while I’m on my way home

PRE-CHORUS

We’ve gotta get out the city
e|------------------------|
B|------------------------|
G|------------------------|
D|-1111-1111--------------|
A|-x-x--x-x---------------|
E|-9-9--9-9---------------|

                     
We’ve gotta get out the way
e|------------------------|
B|------------------------|
G|------------------------|
D|-1111-1111--------------|
A|-x-x--x-x---------------|
E|-9-9--9-9---------------|


We’ve got cash in the kitty
e|------------------------|
B|------------------------|
G|------------------------|
D|-1111-99----------------|
A|-x-x--xx----------------|
E|-9-9--77----------------|

                 
We’ve gotta get on a plane
e|------------------------|
B|------------------------|
G|------------------------|
D|-99-44------------------|
A|-xx-xx------------------|
E|-77-22------------------|

gotta get on, gotta get on
e|------------------------|
B|------------------------|
G|------------------------|
D|-444444-----------------|
A|-xxxxxx-----------------|
E|-222222-----------------|


CHORUS

There’s no time for tears
e|-------------------------------------------------|
B|-------------------------------------------------|
G|-------------------------------------------------|
D|-9-11111111------9-9-9-9-11111111----------------|
A|-x-x-x-x-x-------x-x-x-x-x-x-x-x-----------------|
E|-7-9-9-9-9-------7-7-7-7-9-9-9-9-----------------|
       
When you live in the real world
e|-------------------------------------------------|
B|-------------------------------------------------|
G|-------------------------------------------------|
D|--11-11-11-11-9999-------11-11-11-11-9999--------|
A|--x--x--x--x--xxxx-------x--x--x--x--xxxx--------|
E|--9--9--9--9--7777-------9--9--9--9--7777--------|

There’s no time for tears
e|-------------------------------------------------|
B|-------------------------------------------------|
G|-------------------------------------------------|
D|-9-9-9-9-11111111------9-9-9-9-11111111----------|
A|-x-x-x-x-x-x-x-x-------x-x-x-x-x-x-x-x-----------|
E|-7-7-7-7-9-9-9-9-------7-7-7-7-9-9-9-9-----------|
       
When you live in the real world
e|--------------------------------------------------------|
B|--------------------------------------------------------|
G|--------------------------------------------------------|
D|--11-11-11-11-9999-------11-11-11-11-9999-8/9\8/9\8/9---|
A|--x--x--x--x--xxxx-------x--x--x--x--xxxx-x-x-x-x-x-x---|
E|--9--9--9--9--7777-------9--9--9--9--7777-6-7-6-7-6-7---|

little solo after chorus
e|-16-16-16-14-14-14-13-13-13-11-11-11-9-9-9-7-7-7-4-4-4-------------------|
B|-------------------------------------------------------7-6-7/9~--9-7-6-7-|
G|-------------------------------------------------------------------------|
D|-------------------------------------------------------------------------|
A|-------------------------------------------------------------------------|
E|-------------------------------------------------------------------------|

e|-------------------------------------------------------------------------|
B|-6-7-6-----------6-7-6---------------------------------------------------|
G|-------6-4-4-4-6-------6-4-----------------------------------------------|
D|---------------------------6-4-3-4-3-------------------------------------|
A|-------------------------------------4~----------------------------------|
E|-------------------------------------------------------------------------|

BRIDGE (after the second chorus)

Here is best to just improvise with whatever you like as Tom always plays different things.

Hopefully theres everything you need here :)




Suggest correction
Give kudos to tab author, rate the tab!
1 2 3 4 5
comments
print report bad tab
guest
You may want to rate the tab now too:
select rating
Wanna post a correction for this tab? Suggest correction