Oops, an error
Loading. Please wait.

No Time For Tears Tab

version 2
version 2

Whole song

600 views 1 this week
no commentswrite comment
1 2 3 4 5
please rate
add to favorites
launch autoscroll
font size
0
reset
how to read this tab
guitar tuner
Autoscroll
slow
fast
+/-
esc
set tempo
stop
Help us to improve Ultimate-Guitar.com Take our survey!
×
Author
Difficulty
----------------------------------------------------------------------------

                        The Enemy- No Time For Tears

----------------------------------------------------------------------------

Tabbed By- Ryan
Email- jjulie679@aol.com

I was looking through the tabs on the song and noticed that some of them are just slightley off,
so I decided to take matters into my own hands!

Chords Used:

C#- 91111xxx or x466xx
B- 799xxx or x244xx
F#- 244xxx

The intro starts off with a little keyboard riff... Liam Watts then enters with some emense
drumming... Then Tom with this:

E|-9-9-9-9-----9-9-9-9-----7-7-7-7----2-2-2-2--------------------|
A|-11111111----11111111----9-9-9-9----4-4-4-4--------------------|
D|-11111111----11111111----9-9-9-9----4-4-4-4--------------------|
G|-xxxxxxx-----xxxxxxx-----xxxxxxx----xxxxxxx--------------------|
B|-xxxxxxx-----xxxxxxx-----xxxxxxx----xxxxxxx--------------------|
e|-xxxxxxx-----xxxxxxx-----xxxxxxx----xxxxxxx--------------------|

E|-9-9-9-9-----9-9-9-9-----7-7-7-7----2-2-2-2--------------------|
A|-11111111----11111111----9-9-9-9----4-4-4-4--------------------|
D|-11111111----11111111----9-9-9-9----4-4-4-4--------------------|
G|-xxxxxxx-----xxxxxxx-----xxxxxxx----xxxxxxx--------------------|
B|-xxxxxxx-----xxxxxxx-----xxxxxxx----xxxxxxx--------------------|
e|-xxxxxxx-----xxxxxxx-----xxxxxxx----xxxxxxx--------------------|

There is no guitar for the first verse just bass.

Verse One:

The moning after,
The revolution,
PC 1525 told me there was no real solution,
Bruised lips and a ripped up jacket,
Money all on the road,
Some prat with a big fat mouth,
Screaming "What about my way home"

Pre Chorus:

E|-9-9-9-9-----9-9-9-9-----7-7-7-7----2-2-2-2--------------------|
A|-11111111----11111111----9-9-9-9----4-4-4-4--------------------|
D|-11111111----11111111----9-9-9-9----4-4-4-4--------------------|
G|-xxxxxxx-----xxxxxxx-----xxxxxxx----xxxxxxx--------------------|
B|-xxxxxxx-----xxxxxxx-----xxxxxxx----xxxxxxx--------------------|
e|-xxxxxxx-----xxxxxxx-----xxxxxxx----xxxxxxx--------------------|

E|-9-9-9-9-----9-9-9-9-----7-7-7-7----2-2-2-2--------------------|
A|-11111111----11111111----9-9-9-9----4-4-4-4--------------------|
D|-11111111----11111111----9-9-9-9----4-4-4-4--------------------|
G|-xxxxxxx-----xxxxxxx-----xxxxxxx----xxxxxxx--------------------|
B|-xxxxxxx-----xxxxxxx-----xxxxxxx----xxxxxxx--------------------|
e|-xxxxxxx-----xxxxxxx-----xxxxxxx----xxxxxxx--------------------|

                     C#
We gotta get out the city,
                     C#
We gotta get out the way,
                   B
We got cash in the kitty,
                  F#
We gotta get on a plane,
                     C#
We gotta get out the city,
                     C#
We gotta get out the way,
                   B
We got cash in the kitty,
                  F#
We gotta get on a plane,

Gotta get out,

Gotta get out,

At the point where "Gotta get out" is sung just hold the F#- 244xxx

Chorus One:

E|-9-9-9-9-----9-9-9-9-----7-7-7-7----2-2-2-2--------------------|
A|-11111111----11111111----9-9-9-9----4-4-4-4--------------------|
D|-11111111----11111111----9-9-9-9----4-4-4-4--------------------|
G|-xxxxxxx-----xxxxxxx-----xxxxxxx----xxxxxxx--------------------|
B|-xxxxxxx-----xxxxxxx-----xxxxxxx----xxxxxxx--------------------|
e|-xxxxxxx-----xxxxxxx-----xxxxxxx----xxxxxxx--------------------|

E|-9-9-9-9-----9-9-9-9-----7-7-7-7----2-2-2-2--------------------|
A|-11111111----11111111----9-9-9-9----4-4-4-4--------------------|
D|-11111111----11111111----9-9-9-9----4-4-4-4--------------------|
G|-xxxxxxx-----xxxxxxx-----xxxxxxx----xxxxxxx--------------------|
B|-xxxxxxx-----xxxxxxx-----xxxxxxx----xxxxxxx--------------------|
e|-xxxxxxx-----xxxxxxx-----xxxxxxx----xxxxxxx--------------------|

           C#       C#
There's no time for tears,
         B
When you live,
            F#
In the real world,

           C#       C#
There's no time for tears,
         B
When you live,
            F#
In the real world,

After this, Tom plays a little solo:

E|----------------------------------------------------------------|
A|----------------------------------------------------------------|
D|----------------------------------------------------------------|
G|----------------------------------------------------------------|
B|-16-16-14-14-14-13-13-13-11-11-11-9-9-9-7-7-7-4-4-7-6-7/9-9-6-7-|
e|----------------------------------------------------------------|

/= Slide

There is no guitar for verse two again, just bass.

Verse Two:

Gettin' back to a empty flat,
Head thumpin' even more,
Screwed up wrappers from a take away dinner,
Scattered all over the floor,
This isn't glamorous,
It's not rock and roll,
This is England on a Saturday night,
This is a nation's soul!

Pre Chorus:

E|-9-9-9-9-----9-9-9-9-----7-7-7-7----2-2-2-2--------------------|
A|-11111111----11111111----9-9-9-9----4-4-4-4--------------------|
D|-11111111----11111111----9-9-9-9----4-4-4-4--------------------|
G|-xxxxxxx-----xxxxxxx-----xxxxxxx----xxxxxxx--------------------|
B|-xxxxxxx-----xxxxxxx-----xxxxxxx----xxxxxxx--------------------|
e|-xxxxxxx-----xxxxxxx-----xxxxxxx----xxxxxxx--------------------|

E|-9-9-9-9-----9-9-9-9-----7-7-7-7----2-2-2-2--------------------|
A|-11111111----11111111----9-9-9-9----4-4-4-4--------------------|
D|-11111111----11111111----9-9-9-9----4-4-4-4--------------------|
G|-xxxxxxx-----xxxxxxx-----xxxxxxx----xxxxxxx--------------------|
B|-xxxxxxx-----xxxxxxx-----xxxxxxx----xxxxxxx--------------------|
e|-xxxxxxx-----xxxxxxx-----xxxxxxx----xxxxxxx--------------------|

                     C#
We gotta get out the city,
                     C#
We gotta get out the way,
                   B
We got cash in the kitty,
                  F#
We gotta get on a plane,
                     C#
We gotta get out the city,
                     C#
We gotta get out the way,
                   B
We got cash in the kitty,
                  F#
We gotta get on a plane,

Gotta get out,

Gotta get out,

Chorus Two:

           C#       C#
There's no time for tears,
         B
When you live,
            F#
In the real world,

           C#       C#
There's no time for tears,
         B
When you live,
            F#
In the real world,

Tom's guitar then goes silent as the bass and drums take over... Emma
Skipp then displays the true power of her voice whilst Tom plays:

E|-9-9-9-9-----9-9-9-9-----7-7-7-7----2-2-2-2--------------------|
A|-11111111----11111111----9-9-9-9----4-4-4-4--------------------|
D|-11111111----11111111----9-9-9-9----4-4-4-4--------------------|
G|-xxxxxxx-----xxxxxxx-----xxxxxxx----xxxxxxx--------------------|
B|-xxxxxxx-----xxxxxxx-----xxxxxxx----xxxxxxx--------------------|
e|-xxxxxxx-----xxxxxxx-----xxxxxxx----xxxxxxx--------------------|

E|-9-9-9-9-----9-9-9-9-----7-7-7-7----2-2-2-2--------------------|
A|-11111111----11111111----9-9-9-9----4-4-4-4--------------------|
D|-11111111----11111111----9-9-9-9----4-4-4-4--------------------|
G|-xxxxxxx-----xxxxxxx-----xxxxxxx----xxxxxxx--------------------|
B|-xxxxxxx-----xxxxxxx-----xxxxxxx----xxxxxxx--------------------|
e|-xxxxxxx-----xxxxxxx-----xxxxxxx----xxxxxxx--------------------|

It then goes back into the chorus.

Chorus Three:

E|-9-9-9-9-----9-9-9-9-----7-7-7-7----2-2-2-2--------------------|
A|-11111111----11111111----9-9-9-9----4-4-4-4--------------------|
D|-11111111----11111111----9-9-9-9----4-4-4-4--------------------|
G|-xxxxxxx-----xxxxxxx-----xxxxxxx----xxxxxxx--------------------|
B|-xxxxxxx-----xxxxxxx-----xxxxxxx----xxxxxxx--------------------|
e|-xxxxxxx-----xxxxxxx-----xxxxxxx----xxxxxxx--------------------|

E|-9-9-9-9-----9-9-9-9-----7-7-7-7----2-2-2-2--------------------|
A|-11111111----11111111----9-9-9-9----4-4-4-4--------------------|
D|-11111111----11111111----9-9-9-9----4-4-4-4--------------------|
G|-xxxxxxx-----xxxxxxx-----xxxxxxx----xxxxxxx--------------------|
B|-xxxxxxx-----xxxxxxx-----xxxxxxx----xxxxxxx--------------------|
e|-xxxxxxx-----xxxxxxx-----xxxxxxx----xxxxxxx--------------------|


            C#       C#
There's no time for tears,
         B
When you live,
            F#
In the real world,

           C#       C#
There's no time for tears,
         B
When you live,
            F#
In the real world,

The Pianno/Keyboard then finishes things nicely off, great tune
thanks for reading, please rate and comment!
Suggest correction
Give kudos to tab author, rate the tab!
1 2 3 4 5
comments
print report bad tab
guest
You may want to rate the tab now too:
select rating
Wanna post a correction for this tab? Suggest correction