Oops, an error
Loading. Please wait.

Pressure Bass Tab

1,061 views 12 this week
no commentswrite comment
1 2 3 4 5
please rate
add to favorites
launch autoscroll
font size
0
reset
guitar tuner
Autoscroll
slow
fast
+/-
esc
set tempo
stop
Help us to improve Ultimate-Guitar.com Take our survey!
×
lissen for when the bass comes in about 3-4 seconds in
intro
G-------------------|
D-------------------|
A-------------------|
E-2/////14----------|


G---------------------|
D---------------------|       x2
A---------------------|
E-44--44--44-77-66-22-|


G-----------------------------|
D-----------------------------|        x1 lissen for rythem
A-----------------------------|
E-4444-7777-2222-0000---------|


G---------------------|
D---------------------|       x4
A---------------------|
E-44--44--44-77-66-22-|


G--------------------------------------------------------|
D--------------------------------------------------------|
A-44-66-77-99-11111111-9999 Thes are 11 fret not 1-------|      x2
E--------------------------------------------------------| lissen again for rythem

G----------------------|
D----66-44-------6-----| Not to sure about this bit i think i
A----------66------4---| tabed it right not sure how main times its played
E-44----------4-4----4-|


G-----------------------------|
D-----------------------------|        x1
A-----------------------------|
E-4444-7777-2222-0000---------|


G---------------------|
D---------------------|       x4
A---------------------|
E-44--44--44-77-66-22-|


G--------------------------------------------------------|
D--------------------------------------------------------|
A-44-66-77-99-11111111-9999 Thes are 11 fret not 1-------|      x2
E--------------------------------------------------------|

G----------------------|
D----66-44-------6-----|
A----------66------4---|
E-44----------4-4----4-|


G-----------------------------|
D-----------------------------|        x1
A-----------------------------|
E-4444-7777-2222-0000---------|


G---------------------|
D---------------------|       x2
A---------------------|
E-44--44--44-77-66-22-|

End on a E---4----
Suggest correction
Give kudos to tab author, rate the tab!
1 2 3 4 5
comments
print report bad tab
guest
You may want to rate the tab now too:
select rating
Wanna post a correction for this tab? Suggest correction